Song name
# A B C D E F G H I J K L M N O P Q R S T U V W X Y Z

Nirvana - Swap Meet tab

Intro:

e|----|---------------------------------------------------------------------|
B|-9~-|---------------------------------------------------------------------|
G|----|---------------------------------------------------------------------|
D|----|-0-4-3--0-4-3-----0-4-3--0-3-4-----0-4-3--0-4-3-----0-4-3--0-4-3-----|
A|----|-0-4-3--0-4-3-----0-4-3--0-3-4-----0-4-3--0-4-3-----0-4-3--0-4-3-----|
D|----|-0-4-3--0-4-3-3p2-0-4-3--0-3-4-3p2-0-4-3--0-4-3-3p2-0-4-3--0-4-3-3p2-|


Verse/Main Riff:

e|----------------------------------------|
B|----------------------------------------|
G|----------------------------------------|
D|----3-------2-----------3-------2-------|
A|-/4-3--0-/3-2--------/4-3--0-/3-2-------|
D|-/4----0-/3---3p2p0--/4----0-/3---3p2p0-|


Chorus:
                                                              
e|----------------------------|---------------------------------|
B|----------------------------|---------------------------------|
G|----------------------------|---------------------------------|
D|-/5--5-5-5-5-5/8--8-8-8-8-8-|---------------------------------|
A|-/5--5-5-5-5-5/8--8-8-8-8-8-|-----------------3---------------|
D|-/5--5-5-5-5-5/8--8-8-8-8-8-|-0---3-2-1-0-1-3---0-3-2-1-0-1-0-|

e|----------------------------|---------------------------------|
B|----------------------------|---------------------------------|
G|----------------------------|---------------------------------|
D|-/5--5-5-5-5-5/8--8-8-8-8-8-|---------------------------------|
A|-/5--5-5-5-5-5/8--8-8-8-8-8-|-----------------3---------------|
D|-/5--5-5-5-5-5/8--8-8-8-8-8-|-0---3-2-1-0-1-3---0-3-2-1-0-1-0-|

e|----------------------------|-------|-------|-----------------|
B|----------------------------|-------|-------|-----------------|
G|----------------------------|-------|-------|-----------------|
D|-/5--5-5-5-5-5/8--8-8-8-8-8-|-3-3---|-2-2---|-1-1-1-1-1-1-1-1-|
A|-/5--5-5-5-5-5/8--8-8-8-8-8-|-3-3---|-2-2---|-1-1-1-1-1-1-1-1-|
D|-/5--5-5-5-5-5/8--8-8-8-8-8-|-3-3---|-2-2---|-1-1-1-1-1-1-1-1-|


Solo:
                                            
e|--------------------------------------------|--------------------------------------------|
B|-6\5\6\5\6\5\6\5--7p5p0--------7p5p0--------|-6\5\6\5\6\5\6\5--7p5p0--------7p5p0--------|
G|-5\4\5\4\5\4\5\4--------10p8p0-------10p8p0-|-5\4\5\4\5\4\5\4--------10p8p0-------10p8p0-|
D|--------------------------------------------|--------------------------------------------|
A|--------------------------------------------|--------------------------------------------|
D|--------------------------------------------|--------------------------------------------|

e|--------------------------------------------|--------------------------------------------|
B|-6\5\6\5\6\5\6\5--7p5p0--------7p5p0--------|-6\5\6\5\6\5\6\5--7p5p0--------7p5p0--------|
G|-5\4\5\4\5\4\5\4--------10p8p0-------10p8p0-|-5\4\5\4\5\4\5\4--------10p8p0--------------|
D|--------------------------------------------|--------------------------------------------|
A|--------------------------------------------|--------------------------------------------|
D|--------------------------------------------|-------------------------------------/12\p0-|



End:

e|----|
B|----|
G|----|
D|-0--|
A|-0--|
E|-0--|



Intro
Verse   X8
Chorus
Verse   X8
Chorus
Solo
Verse   X8  (PM for first 2)
Chorus
End
Tap to rate this tab
# A B C D E F G H I J K L M N O P Q R S T U V W X Y Z