Song name
# A B C D E F G H I J K L M N O P Q R S T U V W X Y Z

Nirvana - Breed tab

-------------------------------------------------------------------------------
			     "BREED" - Nirvana
-------------------------------------------------------------------------------
Tabbed by: falco.1993
Email: phoenix.1993@ymail.com

Tuning: Standard (EADGBe)

NOTE: I'm not entirely sure the verse riff is right, but it kinda sounds right.

Intro:

e|-----------------|
B|-----------------|
G|-----------------|
D|-----------------|
A|-4-4---4-/7b-----|
E|-2-2-0-2-/5b--0--| x16

Verse:

e|-2-2-2-2-2-2-2-2-2-2-2-2-2-2-2-2-2-2-2-2-2-2-2-2-2-2-2----|
B|-2-2-2-2-2-2-2-2-2-2-2-2-2-2-2-2-2-2-2-2-2-2-2-2-2-2-2-1~-|
G|----------------------------------------------------------|
D|----------------------------------------------------------|
A|----------------------------------------------------------|
E|----------------------------------------------------------| x3

e|-2-2-2-2-2-2-2-2-2-2-2-2-2-2-2-2-2-2-2-2-2-2-2-2-----------------|
B|-2-2-2-2-2-2-2-2-2-2-2-2-2-2-2-2-2-2-2-2-2-2-2-2-----------------|
G|-----------------------------------------------------------------|
D|-------------------------------------------------2-2-2-2-2-2-2-2-|
A|-------------------------------------------------2-2-2-2-2-2-2-2-|
E|-------------------------------------------------0-0-0-0-0-0-0-0-|

Chorus:

e|------------|------------|
B|------------|------------|
G|------------|------------|
D|-7-7-7------|-5-5-5-4-4--|
A|-5-5-5-7-7--|-3-3-3-2-2--|
E|-------5-5--|------------| x4 with a slide in and out of the 12th fret on the A string 
last time.

e|-----------------|
B|-----------------|
G|-----------------|
D|-----------------|
A|-4-4---4-/7b-----|
E|-2-2-0-2-/5b--0--| x8

Repeat the verse and chorus then go to the solo:

  Trem. pick======================>
e|-------------------------------------------------|
B|-------------------------------------------------|
G|-------------------------------------------------|
D|-------------------------------------------------|
A|-21------------------------------21--20--19--18--|
E|-------------------------------------------------|

  Trem. pick======================>
e|-------------------------------------------------|
B|-------------------------------------------------|
G|-------------------------------------------------|
D|-19------------------------------19--18--17--16--|
A|-------------------------------------------------|
E|-------------------------------------------------|

  Trem. pick======================>
e|-------------------------------------------------|
B|-------------------------------------------------|
G|-17------------------------------17--16--15--14--|
D|-------------------------------------------------|
A|-------------------------------------------------|
E|-------------------------------------------------|

  Trem. pick and bend as you go the whole time (listen to the solo and do the way Kurt 
it basically)
e|-------------------------------------------------|
B|-15----------------------------------------------|
G|-------------------------------------------------|
D|-------------------------------------------------|
A|-------------------------------------------------|
E|-------------------------------------------------|

Repeat the chorus and end with:

  let ring
e|-------------------------------------------------|
B|-------------------------------------------------|
G|-------------------------------------------------|
D|-------------------------------------------------|
A|-4-----------------------------------------------|
E|-2-----------------------------------------------|

There you go. Hope you liked it.


************************************

| /   slide up
| \   slide down
| h   hammer-on
| p   pull-off
| ~   vibrato
| +   harmonic
| x   Mute note
| b   Bend
| pb  Pre-bend
| br  Bend release
| pbr Pre-bend release
| brb Bend release bend

************************************
Tap to rate this tab
 
# A B C D E F G H I J K L M N O P Q R S T U V W X Y Z