Song name
# A B C D E F G H I J K L M N O P Q R S T U V W X Y Z

Nirvana - Dive tab

Dive by Nirvana

Intro


E  ---------------------------------7-7-7----|      repeat 3 times
H  ---------------------------------7-7-7----|
G  ---------------------------------7-7-7----|
D  ---4--0---4--4---0--4---2--2-----7-7-7----|
A  ---4--0---4--4---0--4---2--2-----5-5-5----|
E  ---2--0---2--2---0--2---0--0-----5-5-5----|

and then one time


E  --------------------------------------|
H  --------------------------------------|
G  --------------------------------------|
D  ---4--0---4--4---0--4---2--2---2s12---|
A  ---4--0---4--4---0--4---2--2---2s12---|
E ----2--0---2--2---0--2---0--0---0--0---|


couplet

E  ---------------------0--0------0--0----0--0--0----|
H  ---------------------0--0------0--0----0--0--0----|
G  ---------------------1--1------1--1----1--1--1----|
D  ---------------2-----2--2------2--2----2--2--2----|
A  ----------0----------2--2------2--2----2--2--2----|
E  ---2--2--------------0--0------0--0----0--0--0----|


chorus

E  -------------------------------|
H  -------------------------------|
G  -------------------------------|
D  ----4---4--7---7--6---6--2--2--|
A  ----4---4--7---7--6---6--0--0--|
E  ----2---2--5---5--4---4--0--0--|

then intro

writed by nail_.
Tap to rate this tab
# A B C D E F G H I J K L M N O P Q R S T U V W X Y Z