Song name
# A B C D E F G H I J K L M N O P Q R S T U V W X Y Z

Nirvana - My Best Friends Girl tab

Hey,

these are the right tap's! You have to tune
your guitar a half-step down! I don't have the
tap's for the solo, mayby I will at them later.
Nirvana played that song on their last show
in Munich. It's a cover from the cars.

  Verse

e|---------------------------------------------------------------------------|
B|---------------------------------------------------------------------------|
G|----------------2-2-2-2---4-4-4-4------------------------------------------|
D|-2-2-2-2--2-2---2-2-2-2---4-4-4-4------------------------------------------|
A|-2-2-2-2--2-2---0-0-0-0---2-2-2-2------------------------------------------|
E|-0-0-0-0--0-0--------------------------------------------------------------|






  Chorus

   She's my best friends gi-i-i-irl
e|--------------------------------------------------------------------------|
B|--------------------------------------------------------------------------|
G|-------------------------2-2-2-2------------------------------------------|
D|-------------------------2-2-2-2------------------------------------------|
A|-------------------------0-0-0-0------------------------------------------|
E|--------------------------------------------------------------------------

   She's my best friends gi-i-i-irl
e|--------------------------------------------------------------------------|
B|--------------------------------------------------------------------------|
G|-4--4--4--4--4--4--4-----2-2-2-2------------------------------------------|
D|-4--4--4--4--4--4--4-----2-2-2-2------------------------------------------|
A|-2--2--2--2--2--2--2-----0-0-0-0------------------------------------------|
E|--------------------------------------------------------------------------|


  She's my best friends gi-i-i-irl
e|--------------------------------------------------------------------------|
B|--------------------------------------------------------------------------|
G|-------------------------2-2-2-2------------------------------------------|
D|-------------------------2-2-2-2------------------------------------------|
A|-------------------------0-0-0-0------------------------------------------|
E|--------------------------------------------------------------------------

   She's my best friends  gi-i-i-irl
e|--------------------------------------------------------------------------|
B|--------------------------------------------------------------------------|
G|-4--4--4--4--4--4--4-----2-2-2-2------------------------------------------|
D|-4--4--4--4--4--4--4-----2-2-2-2------------------------------------------|
A|-2--2--2--2--2--2--2-----0-0-0-0------------------------------------------|
E|--------------------------------------------------------------------------|




   And she used to be  mi-i-n-n-e-e
e|--------------------------------------------------------------------------|
B|--------------------------------------------------------------------------|
G|--4--4--4--4--4--4-------------------------2-2-2-2-------4-4-4-4----------|
D|--4--4--4--4--4--4----2-2-2-2-2------------2-2-2-2-------4-4-4-4----------|
A|--2--2--2--2--2--2----2-2-2-2-2------------0-0-0-0-------2-2-2-2----------|
E|----------------------0-0-0-0-0-------------------------------------------|




The tap's are correct, you can listen  to the song
and play guitar with that tap's at the same time.


Hope you have fun,

Benscott@web.de
Tap to rate this tab
# A B C D E F G H I J K L M N O P Q R S T U V W X Y Z