Song name
# A B C D E F G H I J K L M N O P Q R S T U V W X Y Z

Nirvana - Heart Shaped Box tab

Heart Shaped Box
Afina la 6? cuerda a D
 
     A        F        D                A         F        D
G|-------2----------------------------------2-------------------------------|
D|-----2---2------3---------0---0---------2---2------3----2/4-4---4-------0-|
A|---0----------3---3-----0---0---0-----0----------3---3--3/5---5---5-3-3---|
D|------------3--------0-------------------------3--------0/----------------|

     A       F       D
G|---2-2--4~------4~-------------------|
D|---2-2-----3-3-----2/4-4---4-------0-|
A|---0-0-----3-3-----3/5---5---5-3-3---|
D|-----------3-3-----0/----------------|

     F           D                F           D
B|---------------------4~-0-4-0---------------------------------|
G|---------------------4~-0-4-0---------------------------------|
D|---3-3-3-3-3-3-0--0------------3-3-3-3-3-3--2/4-4---4-------0-|
A|---3-3-3-3-3-3-0--0------------3-3-3-3-3-3--3/5---5---5-3-3---|
D|---3-3-3-3-3-3-0--0------------3-3-3-3-3-3--0/----------------|


SOLO
                                                  Distorsi?n     Sin Distorsi?n
                                                            \    /
G|------9~----7~----5~-5-4-2-0-------9~----7~----5~-5-4-2-0-2---2
D|---7-----5-----3----------------7-----5-----3-------------2---2
A|----------------------------------------------------------0---0

BY dcrkampy
Tap to rate this tab
# A B C D E F G H I J K L M N O P Q R S T U V W X Y Z