Nirvana - Floyd The Barber tab

HI!

I'm almost sure this tab is 100% accurate.  I know that Kurt does the
hammer on thing in the main riff cause i saw him doing it in this video
http://www.youtube.com/watch?v=pzmpy88Xzfo
ENJOY!

Symbols:
|....| - Palm Mute
/ - Slide Up
\ - Slide Down
~ - Trill/Vibrato

Tune down 1/2 step
  
  Intro
         X3        
eb|---------------||-----------------|  
Bb|---------------||-----------------|   
Gb|---------------||-----------------| 
Db|---------------||-----------------|
Ab|3---3---2-2-2--||3---3---2-2-2-2--|
Eb|0h1-0h1-0-0-0--||0h1-0h1-0-0-0-0--|
          |.....|         
                                              
         X3             Not sure about this part. You can hear the open 
eb|---------------||--------0-0-0-0--| notes but im not sure if he is  
Bb|---------------||--------0-0-0-0--| still palm muting the E5 or     
Gb|---------------||--------x-x-x-x--| not but i dont think it    
Db|---------------||--------x-x-x-x--| matters that much.    
Ab|3---3---2-2-2--||3---3---2-2-2-2--|
Eb|0h1-0h1-0-0-0--||0h1-0h1-0-0-0-0--|
          |.....|        
                                       
   Verse   X3                                   
eb|---------------||------------------|  Note:I think he does a neckslide
Bb|---------------||------------------|      at the end of the main riff 
Gb|---------------||------------------|       right before it goes into
Db|---------------||------------------|       the chorus.
Ab|3---3---2-2-2--||3---3---2-2-2-2---|
Eb|0h1-0h1-0-0-0--||0h1-0h1-0-0-0-0---|
          |.....|          |.......|

   Chorus                                  
eb|----------------------------|
Bb|----------------------------|
Gb|6-6-6-------5-5-------------|
Db|6-6-6-7-7---5-5---6-6-------|
Ab|4-4-4-7-7---3-3---6-6-------|
Eb|------5-5---------4-4-------|


   Guitar Solo     x3
eb|--------------------------------||--------------------------------|
Bb|--------------------------------||--------------------------------|
Gb|--------------------------------||--------------------------------|
Db|--------------------------------||--------------------------------|
Ab|------------0-1-3~~~3-1---0-1-3-||------------0-1-3/5-5/6-6/7-7\--|
Eb|1---1-0-1-3---------------------||1---1-0-1-3---------------------|


   Outro
eb|---------------|  
Bb|---------------|
Gb|---------------|
Db|---------------|
Ab|3---3---2-2-2--|
Eb|0h1-0h1-0-0-0--|
          |.....|         

It randomly does that open note thing on the B and e string, that i talked
about in the intro, throughout the song... but like i said i dont think it
is that big of a deal.


Song Structure:
Intro x1
Verse x2
Chorus x4
Verse x3
Chorus x4
Guitar Solo x1
Verse x3
Chorus x4
Outro x1

Please Rate...
Tap to rate this tab
 
# A B C D E F G H I J K L M N O P Q R S T U V W X Y Z