Guitaretab - guitar tabs
Song name
# A B C D E F G H I J K L M N O P Q R S T U V W X Y Z

Nirvana - You Know Your Right tab

Song:You know Your right
Artist:Nirvana
Album:"Nirvana"
Tuning:e b g d a Eb (high to low)

Intro/verse

1||----------------------------------------------||
2||----------------------------------------------||
3||----------------------------------------------||
4||------3---3------3---3------3-----------------||
5||----3---3------3---3------3---3-3-----3---3---||
6||-0h2--------0h2--------0h2--------0-0---0---0-||

Pre chorus (Heavey)

1||----------------------------------------------||
2||----------------------------------------------||
3||-6-6-6-6-6-6-6-6-6-6-6-8-8-8-8-8-8-8-8-8-8-8-8||
4||-6-6-6-6-6-6-6-6-6-6-6-8-8-8-8-8-8-8-8-8-8-8-8||
5||-4-4-4-4-4-4-4-4-4-4-4-6-6-6-6-6-6-6-6-6-6-6-6||
6||----------------------------------------------||

Pre Chorus (Quiet)

1||------------------------------------||
2||---------------6-----------8---8----||
3||-----6-------6-----------8---8------||
4||---6---6---6-----6-----8----------8-||
5||-4-------4---------4/6--------------||
6||------------------------------------||

Chorus

1||-----------------||
2||-----------------||
3||-----------------||
4||-3---3-3-3-3-3-3-||
5||-3---3-3-3-3-3-3-||
6||-0h2-2-2-2-2-2-2-||

End
(Just mess around with feedback)
1||----------------||
2||----------------||
3||--------)-------||
4||-8-7-8--14-etc.-||
5||----------------||
6||----------------||

Email me with comments etc at Ramond_the_elf@Yahoo.co.uk
Thanx
[ Tab from: http://www.guitaretab.com/n/nirvana/23889.html ]
Related for You Know Your Right tab
×
Best way to learn
"You Know Your Right"