Song name
# A B C D E F G H I J K L M N O P Q R S T U V W X Y Z

Nirvana - Lithium tab

Here is a good lithium
/=Slide

Intro
e---------------------------------------x-x/-x-x-x/-x-x/-x-x-x|
B---------------------------------------x-x/-x-x-x/-x-x/-x-x-x|
G---------------------------------------5-5/-7-7-7/-4-4/-7-7-7|X2
D----------------------6-----------7----5-5/-7-7-7/-4-4/-7-7-7|
A-------------6-----4-----------7-------3-3/-5-5-5/-2-2/-5-5-5|
E----0---0-4-----0--------0---5---------x-x/-x-x-x/-x-x/-x-x-x|


Chorus
e---x--x----x--x----x--x----x--x----x--x----x--x----x--x----x--x|
B---x--x----x--x----x--x----x--x----x--x----x--x----x--x----x--x|
G---1--1----x--x----6--6----x--x----5--5----7--7----4--4----7--7|X2
D---2--2----6--6----6--6----7--7----5--5----7--7----4--4----7--7|
A---2--2----6--6----4--4----7--7----3--3----5--5----2--2----5--5|
E---0--0----4--4----x--x----5--5----x--x----x--x----x--x----x--x|
Tap to rate this tab
# A B C D E F G H I J K L M N O P Q R S T U V W X Y Z