Song name
# A B C D E F G H I J K L M N O P Q R S T U V W X Y Z

Nirvana - The End tab

Help us improve GuitareTab! Take a short survey!
THE END
        from the album 'The Doors'.
---------------------------------------------------------------------------

(Sixth string to D)
(All chords are the usual open ones)

|---------------||------------------|-----------------|------------------||
|---------------||---------3----2---|-3------3---2----|-3-------3--------||
|--------------.||-----------2------|----------2------|-----------2------||
|-------0----0-.||-------0------0---|------0-----0----|------0-------0---||
|-----0----0----||----0-------------|----0------------|----0-------------||
|--0------------||-0----------------|-0---------------|-0----------------||

|----------------|------------------|-----------------|-------------------|
|----------------|------1----1---0--|------------3--2-|----------3--------|
|---2--2--2---2--|------------------|--2----------2---|-------------2-----|
|----------------|------------------|---------0-----0-|-------0--------0--|
|----------------|------------------|------0----------|-----0-------------|
|------3---------|------------------|--0--------------|-0-----------------|

  This is the end    beau - ti - ful  friend

|----------------|------------------|-----------------|-------------------|
|----------------|----1----1--------|-------1-------0-|---1---3---0-------|
|---2--2--2---2--|--------------0---|---2------2------|---------------0---|
|----------------|------------------|-----------------|-------------------|
|----------------|------------------|-----------------|-------------------|
|------3---------|------------------|-----------------|-------------------|

  This is the end    my  on - ly     friend, the end of   our e-lab-orate


|----------------|------------------|-----------------|
|------1-------0-|-1----3---0-------|------1--------0-|
|--2-----2-------|---------------0--|-2-------2-------|
|----------------|------------------|-----------------|
|----------------|------------------|-----------------|
|----------------|------------------|-----------------|

  plans, the end of ev-erything that stands, the end. No

|----------------|------------------|-----------------|
|-1---3---0------|-----1--------3---|-3--1--3--3--3-1-|
|-------------0--|--2----2----------|-----------------|
|----------------|------------------|-----------------|
|----------------|------------------|-----------------|
|----------------|------------------|-----------------|

 safety or  sur---prise the end. I'll never look into your


|----------------|------------------|-----------------|-------------------|
|-----------1----|------------------|-----------------|-------------------|
|--2-------------|--2---------------|-2---------------|------2------2-----|
|----------------|------------------|-----------------|-------------------|
|----------------|------------------|-----------------|-------------------|
|----------------|------------------|-----------------|-------------------|

  eyes      a ------gain.______________                     Can     you


[|--0--0---0--0--0|------------------|--1---0----------|---------------------|
|----------------|--3-------5---3---|-----------3---1-|----------------------|
|----------------|------------------|-----------------|---2------------------|
|----------------|------------------|-----------------|----------------------|
|----------------|------------------|-----------------|----------------------|
|----------------|------------------|-----------------|----------------------|

  picture what will be,    So________ lim - it-less and   free


 |----------------|------------------|-----------------|---------------------|
|--3--3--3--3----|-----------1--1---|--------1--------|-----------1---1------|
|----------------|--4--2------------|------------0----|---2------------------|
|----------------|------------------|-----------------|----------------------|
|----------------|------------------|-----------------|----------------------|
|----------------|------------------|-----------------|----------------------|

 des-perately in    need__  of some        stran-ger's    hand    in   a


 |---------1---0--|------------------|-----------------|---------------------|
|----------------|---3--------------|-----------------|-----------3----------|
|----------------|------------------|--------3-----2--|-------------2--------|
|----------------|------------------|-----------2-----|--------0-------0-----|
|----------------|------------------|-----0--------0--|-----0----------------|
|----------------|------------------|-0---------------|-0--------------------|

         des-perate  land.
Related for The End tab