Song name
# A B C D E F G H I J K L M N O P Q R S T U V W X Y Z

Nirvana - Come As You Are tab

Help us improve GuitareTab! Take a short survey!
Nirvana - Come As You Are
(Nevermind)

Afina??o: D A F C G A (1 tom abaixo)


Solo:
   F#m E F#m E F#m            E              F#m          E
e|------------------------------------------------------------------|
B|--------------------------------------------------------9---------|
G|-------------------9--11----------9--11----------9--11-----11--9--|
D|-------------11-------------11-------------11---------------------|
A|------------------------------------------------------------------|
E|------------------------------------------------------------------|
    F#m            E              F#m          E
e|-------------------------------------------------------|
B|---------------------------------------------9---------|
G|--------9--11----------9--11----------9--11-----11--9--|
D|--11-------------11-------------11---------------------|
A|-------------------------------------------------------|
E|-------------------------------------------------------|
    F#m            E              F#m          E
e|-------------------------------------------------------|
B|---------------------------------------------9---------|
G|--------9--11----------9--11----------9--11-----11--9--|
D|--11-------------11-------------11---------------------|
A|-------------------------------------------------------|
E|-------------------------------------------------------|
    F#m            E              F#m          E         F#m*(...Memory...)
e|-----------------------------------------------------------|
B|---------------------------------------------9-------------|
G|--------9--11----------9--11----------9--11-----11--9------|
D|--11-------------11-------------11---------------------11--|
A|-----------------------------------------------------------|
E|-----------------------------------------------------------|


Riff:
        (F#m)          (E)             (F#m)          (E)
e|------------------------------|------------------------------|
B|------------------------------|------------------------------|
G|------------------------------|------------------------------|
D|------------------------------|------------------------------|
A|----------0---0---------2-----|-2--------0---0---------2-----|
E|-0-0-1-2----2---2-2-1-0---0-0-|---0-1-2----2---2-2-1-0---0-0-|
   *>somente na pimeira vez<*      *>depois da primeira vez<*


Intro: Riff (4x)


*Aqui o Riff continua sendo tocado por uma guitarra, e apesar de ter as cifras em cima da letra, n?o tem base, ? s? o Riff:

 F#m
Come
       E
As you are
        F#m
As you were
      E           F#m
As I want you to be
        E
As a friend
        F#m
As a friend
      E       F#m
As an old enemy
           E
Take your time
      F#m
Hurry up
            E               F#m
'Choice is yours, don't be late
        E
Take a rest.
        F#m
As a friend.
              *(Aqui o Riff p?ra de ser tocado, fica s? a base.)
     E        F#m A
As a old memory
     F#m A
Memory
     F#m A
Memory
     F#m A
Memory


 *(Aqui o Riff volta a ser tocado, sem base)
 F#m
Come
           E
Dowsed in mud
            F#m
Soaked in bleach
      E           F#m
As I want you to be
       E
As a trend
        F#m
As a friend
              *(Aqui o Riff p?ra de ser tocado, fica s? a base.)
     E        F#m A
As a old memory
     F#m A
Memory
     F#m A
Memory
     F#m A
Memory

Bm      D
And I swear
        Bm              D
That I don't have a gun
      Bm              D
No I don't have a gun
      Bm              D
No I don't have a gun

(Solo) Base = F#m E (10x)
*O Riff ? tocado durante o solo.

     F#m A
Memory
     F#m A
Memory
     F#m A
Memory
     F#m A
Memory (...don't have a gun...)

Bm      D
And I swear
        Bm              D
That I don't have a gun
      Bm              D
No I don't have a gun
      Bm              D
No I don't have a gun
      Bm              D
No I don't have a gun
      Bm              D
No I don't have a gun

*(Volta a ser tocado o Riff, e a base continua)
F#m E      F#m E
      Memory
F#m E      F#m E
      Memory
F#m!


Final:
         F#m
e|---------|
B|---------|
G|---------|
D|---------|
A|-2-------|
E|---0-1-2-|

___________________________________________________
Transcrito por Librenz em Dezembro/2002, no Brasil.
Related for Come As You Are tab