Song name
# A B C D E F G H I J K L M N O P Q R S T U V W X Y Z

Nirvana - Lounge Act tab

Lounge Act - Nirvana - Nevermind - 1991

Nirvana:
Kurt Cobain (1967-1994): Lead Vocals & Guitar
Krist Novoselic: Bass Guitar
Dave Grohl: Drums & Back Vocals


Intro:

e|-------------------------------------------|
B|-------------------------------------------|
G|----4----x-4----4-4----------5----5-5-0----|
D|----4----x-4----4-4-5-5----x-5----5-5-0----|
A|----2----x-2----2-2-5-5----x-3----3-3-0----|
E|--------------------3-3----x---------------|

e|-------------------------------------------|
B|-------------------------------------------|
G|----4----x-4----4-4----------5----5-5-0----|
D|----4----x-4----4-4-5-5----x-5----5-5-0----|
A|----2----x-2----2-2-5-5----x-3----3-3-0----|
E|--------------------3-3----x---------------|


Verse:

e|-------------------------------------------|
B|-------------------------------------------|
G|----4----x-4----4-4----------5----5-5-0----|
D|----4----x-4----4-4-5-5----x-5----5-5-0----|
A|----2----x-2----2-2-5-5----x-3----3-3-0----|
E|--------------------3-3----x---------------|
      Truth,          covered in security. 

e|-------------------------------------------|
B|-------------------------------------------|
G|----4----x-4----4-4----------5----5-5-0----|
D|----4----x-4----4-4-5-5----x-5----5-5-0----|
A|----2----x-2----2-2-5-5----x-3----3-3-0----|
E|--------------------3-3----x---------------|
                    I can't let you smother me. 

e|-------------------------------------------|
B|-------------------------------------------|
G|----4----x-4----4-4----------5----5-5-0----|
D|----4----x-4----4-4-5-5----x-5----5-5-0----|
A|----2----x-2----2-2-5-5----x-3----3-3-0----|
E|--------------------3-3----x---------------|
                      Like to but it wouldn't

e|-------------------------------------------|
B|-------------------------------------------|
G|----4----x-4----4-4----------5----5-5-0----|
D|----4----x-4----4-4-5-5----x-5----5-5-0----|
A|----2----x-2----2-2-5-5----x-3----3-3-0----|
E|--------------------3-3----x---------------|
      work.        Trading off and taking turns. 

e|-------------------------------------------|
B|-------------------------------------------|
G|----4----x-4----4-4----------5----5-5-0----|
D|----4----x-4----4-4-5-5----x-5----5-5-0----|
A|----2----x-2----2-2-5-5----x-3----3-3-0----|
E|--------------------3-3----x---------------|
                    Don't regret a thing, and


Chorus:

e|-------------------------------------------|
B|-------------------------------------------|
G|-----------2----2-2---7----7---------------|
D|----2----2-2----2-2-0-7----7-5----5-5-0----|
A|----2----2-0----0-0-0-5----5-5----5-5-0----|
E|----0----0----------0--------3----3-3-0----|
 I've got this friend, you see who makes me

e|-------------------------------------------|
B|-------------------------------------------|
G|-----------2----2-2---7----7---------------|
D|----2----2-2----2-2-0-7----7-5----5-5-0----|
A|----2----2-0----0-0-0-5----5-5----5-5-0----|
E|----0----0----------0--------3----3-3-0----|
     feel. And I wanted more than I could

e|-------------------------------------------|
B|-------------------------------------------|
G|-----------2----2-2---7----7---------------|
D|----2----2-2----2-2-0-7----7-5----5-5-0----|
A|----2----2-0----0-0-0-5----5-5----5-5-0----|
E|----0----0----------0--------3----3-3-0----|
     steal. I'll arrest myself and wear a 

e|-------------------------------------------|
B|-------------------------------------------|
G|-----------2----2-2---7----7---------------|
D|----2----2-2----2-2-0-7----7-5----5-5-0----|
A|----2----2-0----0-0-0-5----5-5----5-5-0----|
E|----0----0----------0--------3----3-3-0----|
     shield. I'll go outta my way to prove I, 

e|------------------------------|
B|------------------------------|
G|------------------------------|
D|----2----------6-6-x-5--------|
A|----2----------6-6-x-5--------|
E|----0----------4-4-x-3--------|
      still.....        Smell her

e|------------------------------|
B|------------------------------|
G|------------------------------|
D|----2----------6-6-x-5--------|
A|----2----------6-6-x-5--------|
E|----0----------4-4-x-3--------|
      on you.....         I,   

ee|-----------------------------|
B|------------------------------|
G|------------------------------|
D|----2----------6-6-x-5--------|
A|----2----------6-6-x-5--------|
E|----0----------4-4-x-3--------|
      still.....        Smell her

e|------------------------------|
B|------------------------------|
G|------------------------------|
D|----2----------6-6-x-5--------|
A|----2----------6-6-x-5--------|
E|----0----------4-4-x-3--------|
      on you.....


Verse:

e|-------------------------------------------|
B|-------------------------------------------|
G|----4----x-4----4-4----------5----5-5-0----|
D|----4----x-4----4-4-5-5----x-5----5-5-0----|
A|----2----x-2----2-2-5-5----x-3----3-3-0----|
E|--------------------3-3----x---------------|
      Don't,          tell me what I wanna

e|-------------------------------------------|
B|-------------------------------------------|
G|----4----x-4----4-4----------5----5-5-0----|
D|----4----x-4----4-4-5-5----x-5----5-5-0----|
A|----2----x-2----2-2-5-5----x-3----3-3-0----|
E|--------------------3-3----x---------------|
      hear.          Afraid of never knowing

e|-------------------------------------------|
B|-------------------------------------------|
G|----4----x-4----4-4----------5----5-5-0----|
D|----4----x-4----4-4-5-5----x-5----5-5-0----|
A|----2----x-2----2-2-5-5----x-3----3-3-0----|
E|--------------------3-3----x---------------|
      fear.          Experience anything you

e|-------------------------------------------|
B|-------------------------------------------|
G|----4----x-4----4-4----------5----5-5-0----|
D|----4----x-4----4-4-5-5----x-5----5-5-0----|
A|----2----x-2----2-2-5-5----x-3----3-3-0----|
E|--------------------3-3----x---------------|
      need.          I'll keep fighting jealousy. 

e|-------------------------------------------|
B|-------------------------------------------|
G|----4----x-4----4-4----------5----5-5-0----|
D|----4----x-4----4-4-5-5----x-5----5-5-0----|
A|----2----x-2----2-2-5-5----x-3----3-3-0----|
E|--------------------3-3----x---------------|
                     'Til it's fuckin' gone, and


Chorus:

e|-------------------------------------------|
B|-------------------------------------------|
G|-----------2----2-2---7----7---------------|
D|----2----2-2----2-2-0-7----7-5----5-5-0----|
A|----2----2-0----0-0-0-5----5-5----5-5-0----|
E|----0----0----------0--------3----3-3-0----|
 I've got this friend, you see who makes me

e|-------------------------------------------|
B|-------------------------------------------|
G|-----------2----2-2---7----7---------------|
D|----2----2-2----2-2-0-7----7-5----5-5-0----|
A|----2----2-0----0-0-0-5----5-5----5-5-0----|
E|----0----0----------0--------3----3-3-0----|
     feel. And I wanted more than I could

e|-------------------------------------------|
B|-------------------------------------------|
G|-----------2----2-2---7----7---------------|
D|----2----2-2----2-2-0-7----7-5----5-5-0----|
A|----2----2-0----0-0-0-5----5-5----5-5-0----|
E|----0----0----------0--------3----3-3-0----|
     steal. I'll arrest myself and wear a 

e|-------------------------------------------|
B|-------------------------------------------|
G|-----------2----2-2---7----7---------------|
D|----2----2-2----2-2-0-7----7-5----5-5-0----|
A|----2----2-0----0-0-0-5----5-5----5-5-0----|
E|----0----0----------0--------3----3-3-0----|
     shield. I'll go outta my way to prove I, 

e|------------------------------|
B|------------------------------|
G|------------------------------|
D|----2----------6-6-x-5--------|
A|----2----------6-6-x-5--------|
E|----0----------4-4-x-3--------|
      still.....        Smell her

e|------------------------------|
B|------------------------------|
G|------------------------------|
D|----2----------6-6-x-5--------|
A|----2----------6-6-x-5--------|
E|----0----------4-4-x-3--------|
      on you.....         I,   

ee|-----------------------------|
B|------------------------------|
G|------------------------------|
D|----2----------6-6-x-5--------|
A|----2----------6-6-x-5--------|
E|----0----------4-4-x-3--------|
      still.....        Smell her

e|------------------------------|
B|------------------------------|
G|------------------------------|
D|----2----------6-6-x-5--------|
A|----2----------6-6-x-5--------|
E|----0----------4-4-x-3--------|
      on you.....        


Interlude:

e|-------------------------------------------|
B|-------------------------------------------|
G|----4----x-4----4-4----------5----5-5-0----|
D|----4----x-4----4-4-5-5----x-5----5-5-0----|
A|----2----x-2----2-2-5-5----x-3----3-3-0----|
E|--------------------3-3----x---------------|

e|-------------------------------------------|
B|-------------------------------------------|
G|----4----x-4----4-4----------5----5-5-0----|
D|----4----x-4----4-4-5-5----x-5----5-5-0----|
A|----2----x-2----2-2-5-5----x-3----3-3-0----|
E|--------------------3-3----x---------------|


Verse:

e|-------------------------------------------|
B|-------------------------------------------|
G|----4----x-4----4-4----------5----5-5-0----|
D|----4----x-4----4-4-5-5----x-5----5-5-0----|
A|----2----x-2----2-2-5-5----x-3----3-3-0----|
E|--------------------3-3----x---------------|
      Truth,          covered in security! 

e|-------------------------------------------|
B|-------------------------------------------|
G|----4----x-4----4-4----------5----5-5-0----|
D|----4----x-4----4-4-5-5----x-5----5-5-0----|
A|----2----x-2----2-2-5-5----x-3----3-3-0----|
E|--------------------3-3----x---------------|
                    I can't let you smother me! 

e|-------------------------------------------|
B|-------------------------------------------|
G|----4----x-4----4-4----------5----5-5-0----|
D|----4----x-4----4-4-5-5----x-5----5-5-0----|
A|----2----x-2----2-2-5-5----x-3----3-3-0----|
E|--------------------3-3----x---------------|
                      Like to but it wouldn't

e|-------------------------------------------|
B|-------------------------------------------|
G|----4----x-4----4-4----------5----5-5-0----|
D|----4----x-4----4-4-5-5----x-5----5-5-0----|
A|----2----x-2----2-2-5-5----x-3----3-3-0----|
E|--------------------3-3----x---------------|
      work!        Trading off and taking turns! 

e|-------------------------------------------|
B|-------------------------------------------|
G|----4----x-4----4-4----------5----5-5-0----|
D|----4----x-4----4-4-5-5----x-5----5-5-0----|
A|----2----x-2----2-2-5-5----x-3----3-3-0----|
E|--------------------3-3----x---------------|
                    Don't regret a thing, and


Chorus:

e|-------------------------------------------|
B|-------------------------------------------|
G|-----------2----2-2---7----7---------------|
D|----2----2-2----2-2-0-7----7-5----5-5-0----|
A|----2----2-0----0-0-0-5----5-5----5-5-0----|
E|----0----0----------0--------3----3-3-0----|
 I've got this friend, you see who makes me

e|-------------------------------------------|
B|-------------------------------------------|
G|-----------2----2-2---7----7---------------|
D|----2----2-2----2-2-0-7----7-5----5-5-0----|
A|----2----2-0----0-0-0-5----5-5----5-5-0----|
E|----0----0----------0--------3----3-3-0----|
     feel. And I wanted more than I could

e|-------------------------------------------|
B|-------------------------------------------|
G|-----------2----2-2---7----7---------------|
D|----2----2-2----2-2-0-7----7-5----5-5-0----|
A|----2----2-0----0-0-0-5----5-5----5-5-0----|
E|----0----0----------0--------3----3-3-0----|
     steal. I'll arrest myself and wear a 

e|-------------------------------------------|
B|-------------------------------------------|
G|-----------2----2-2---7----7---------------|
D|----2----2-2----2-2-0-7----7-5----5-5-0----|
A|----2----2-0----0-0-0-5----5-5----5-5-0----|
E|----0----0----------0--------3----3-3-0----|
     shield. I'll go outta my way to prove I, 

e|------------------------------|
B|------------------------------|
G|------------------------------|
D|----2----------6-6-x-5--------|
A|----2----------6-6-x-5--------|
E|----0----------4-4-x-3--------|
      still.....        Smell her

e|------------------------------|
B|------------------------------|
G|------------------------------|
D|----2----------6-6-x-5--------|
A|----2----------6-6-x-5--------|
E|----0----------4-4-x-3--------|
      on you.....         I,   

ee|-----------------------------|
B|------------------------------|
G|------------------------------|
D|----2----------6-6-x-5--------|
A|----2----------6-6-x-5--------|
E|----0----------4-4-x-3--------|
      still.....        Smell her

e|------------------------------|
B|------------------------------|
G|------------------------------|
D|----2----------6-6-x-5--------|
A|----2----------6-6-x-5--------|
E|----0----------4-4-x-3--------|
      on you.....       Smell her

e|-----------------|
B|-----------------|
G|-----------------|
D|----2~~~~--------|
A|----2~~~~--------|
E|----0~~~~--------|
      on you.....
  

and that's it! Please rate, post comments, and enjoy playing! ;)
Tap to rate this tab
 
# A B C D E F G H I J K L M N O P Q R S T U V W X Y Z