Song name
# A B C D E F G H I J K L M N O P Q R S T U V W X Y Z

Nirvana - Smells Like Teen Spirit Acoustic tab

struture printed by other tab because i dont know how to do tabs

this version whas made for who dont know how to do barrs chords

Standard Tuning

^ = Bend
x = mute note
h = hammer-on
~ = vibrato

INTRO:
Guitar (clean):
e|-----------------|--3--3-3----------|-----------------|--3--3-3----------|
B|-------------3-3-|--------------1-1-|-----------------|--------------1-1-|
G|-------------3-3-|------------------|-------------3-3-|------------------|
D|-2--2-2-xxxx-3-3-|---------xxxx-2-2-|-2--2-2-xxxx-3-3-|---------xxxx-2-2-|
A|-2--2-2-xxxx-----|--3--3-3-xxxx-3-3-|-2--2-2-xxxx-3-3-|--2--2-2-xxxx-3-3-|
E|--------xxxx-----|--2--2-2-xxxx-----|--------xxxx-----|--3--3-3-xxxx-----|
Guitar (heavy dist)
e|-----------------|--3--3-3----------|-----------------|--3--3-3----------|
B|-------------3-3-|--------------1-1-|-----------------|--------------1-1-|
G|-------------3-3-|------------------|-------------3-3-|------------------|
D|-2--2-2-xxxx-3-3-|---------xxxx-2-2-|-2--2-2-xxxx-3-3-|---------xxxx-2-2-|
A|-2--2-2-xxxx-----|--3--3-3-xxxx-3-3-|-2--2-2-xxxx-3-3-|--2--2-2-xxxx-3-3-|
E|--------xxxx-----|--2--2-2-xxxx-----|--------xxxx-----|--3--3-3-xxxx-----|

e|-----------------|--3--3-3----------|-----------------|--3--3-3----------|
B|-------------3-3-|--------------1-1-|-----------------|--------------1-1-|
G|-------------3-3-|------------------|-------------3-3-|------------------|
D|-2--2-2-xxxx-3-3-|---------xxxx-2-2-|-2--2-2-xxxx-3-3-|---------xxxx-2-2-|
A|-2--2-2-xxxx-----|--3--3-3-xxxx-3-3-|-2--2-2-xxxx-3-3-|--2--2-2-xxxx-3-3-|
E|--------xxxx-----|--2--2-2-xxxx-----|--------xxxx-----|--3--3-3-xxxx-----|

VERSE:
Bass:
G|-----------------|-----------------|-----------------|-----------------|
D|-----------------|-----------------|-----------------|-----------------|
A|---------1-1-1-1-|---------4-4-4-4-|---------1-1-1-1-|---------4-4-4-4-|
E|-1-1-1-1---------|-4-4-4-4---------|-1-1-1-1---------|-4-4-4-4---------|

Guitar:
e|---------1-------|-----------------|---------1-------|-----------------|
B|--------1--------|-----------------|--------1--------|-----------------|
G|-----------------|-----------------|-----------------|-----------------|
D|-----------------|-----------------|-----------------|-----------------|
A|-----------------|-----------------|-----------------|-----------------|
E|-----------------|-----------------|-----------------|-----------------|

Bass:
G|-----------------|-----------------|-----------------|-----------------|
D|-----------------|-----------------|-----------------|-----------------|
A|---------1-1-1-1-|---------4-4-4-4-|---------1-1-1-1-|---------4-4-4-4-|
E|-1-1-1-1---------|-4-4-4-4---------|-1-1-1-1---------|-4-4-4-4---------|

Guitar:
e|---------1-------|-----------------|---------1-------|-----------------|
B|--------1--------|-----------------|--------1--------|-----------------|
G|-----------------|-----------------|-----------------|-----------------|
D|-----------------|-----------------|-----------------|-----------------|
A|-----------------|-----------------|-----------------|-----------------|
E|-----------------|-----------------|-----------------|-----------------|
           Load up on guns, and bring your friends its fun to lose

Bass:
G|-----------------|-----------------|-----------------|-----------------|
D|-----------------|-----------------|-----------------|-----------------|
A|---------1-1-1-1-|---------4-4-4-4-|---------1-1-1-1-|---------4-4-4-4-|
E|-1-1-1-1---------|-4-4-4-4---------|-1-1-1-1---------|-4-4-4-4---------|

Guitar:
e|---------1-------|-----------------|---------1-------|-----------------|
B|--------1--------|-----------------|--------1--------|-----------------|
G|-----------------|-----------------|-----------------|-----------------|
D|-----------------|-----------------|-----------------|-----------------|
A|-----------------|-----------------|-----------------|-----------------|
E|-----------------|-----------------|-----------------|-----------------|
   and to pretend, She's over bored and self-assured, I know I know a dirty word

PRECHORUS
Bass:
G|-----------------|-----------------|-----------------|-----------------|
D|-----------------|-----------------|-----------------|-----------------|
A|---------1-1-1-1-|---------4-4-4-4-|---------1-1-1-1-|---------4-4-4-4-|
E|-1-1-1-1---------|-4-4-4-4---------|-1-1-1-1---------|-4-4-4-4---------|

Guitar:
e|-----1-----1----1|-----1-----1----1|-----1-----1----1|-----1-----1----1|
B|-1-1---1-1---1-1-|-1-1---1-1---1-1-|-1-1---1-1---1-1-|-1-1---1-1---1-1-|
G|-----------------|-----------------|-----------------|-----------------|
D|-----------------|-----------------|-----------------|-----------------|
A|-----------------|-----------------|-----------------|-----------------|
E|-----------------|-----------------|-----------------|-----------------|

 Hello hello hello | Hello hello hello| Hello, hello, hello| Hello, hello, hello
           how low 	       how low		    how low		

Guitar:
e|-----------------|--3--3-3----------|-----------------|--3--3-3----------|
B|-------------3-3-|--------------1-1-|-----------------|--------------1-1-|
G|-------------3-3-|------------------|-------------3-3-|------------------|
D|-2--2-2-xxxx-3-3-|---------xxxx-2-2-|-2--2-2-xxxx-3-3-|---------xxxx-2-2-|
A|-2--2-2-xxxx-----|--3--3-3-xxxx-3-3-|-2--2-2-xxxx-3-3-|--2--2-2-xxxx-3-3-|
E|--------xxxx-----|--2--2-2-xxxx-----|--------xxxx-----|--3--3-3-xxxx-----|
  With the lights out, its less dangerous here we are now, entertain us

e|-----------------|--3--3-3----------|-----------------|--3--3-3----------|
B|-------------3-3-|--------------1-1-|-----------------|--------------1-1-|
G|-------------3-3-|------------------|-------------3-3-|------------------|
D|-2--2-2-xxxx-3-3-|---------xxxx-2-2-|-2--2-2-xxxx-3-3-|---------xxxx-2-2-|
A|-2--2-2-xxxx-----|--3--3-3-xxxx-3-3-|-2--2-2-xxxx-3-3-|--2--2-2-xxxx-3-3-|
E|--------xxxx-----|--2--2-2-xxxx-----|--------xxxx-----|--3--3-3-xxxx-----|
  I feel stupid, and contagious,      here we are now, entertain us

e|-----------------|--3--3-3----------|-----------------|--3--3-3----------|
B|-------------3-3-|--------------1-1-|-----------------|--------------1-1-|
G|-------------3-3-|------------------|-------------3-3-|------------------|
D|-2--2-2-xxxx-3-3-|---------xxxx-2-2-|-2--2-2-xxxx-3-3-|---------xxxx-2-2-|
A|-2--2-2-xxxx-----|--3--3-3-xxxx-3-3-|-2--2-2-xxxx-3-3-|--2--2-2-xxxx-3-3-|
E|--------xxxx-----|--2--2-2-xxxx-----|--------xxxx-----|--3--3-3-xxxx-----|

  A mulatto, 		An albino	A mosquito	  My libido, yeah

e|---------------|----------------|---------------|----------------|
B|---------------|----------------|---------------|----------------|
G|-------------3^|-------3-3------|-------------3^|-------3-3------|
D|-3--3-3-4-4----|-3-3-3-3-3--6-6-|-3--3-3-4-4----|-3-3-3-3-3--6-6-|
A|-3--3-3-4-4----|-3-3-3-1-1--6-6-|-3--3-3-4-4----|-3-3-3-1-1--6-6-|
E|-1--1-1-2-2----|-1-1-1------4-4-|-1--1-1-2-2----|-1-1-1------4-4-|
              hey!                              hey!

Bass:
G|-----------------|-----------------|-----------------|-----------------|
D|-----------------|-----------------|-----------------|-----------------|
A|---------1-1-1-1-|---------4-4-4-4-|---------1-1-1-1-|---------4-4-4-4-|
E|-1-1-1-1---------|-4-4-4-4---------|-1-1-1-1---------|-4-4-4-4---------|

Guitar:
e|---------1-------|-----------------|---------1-------|-----------------|
B|--------1--------|-----------------|--------1--------|-----------------|
G|-----------------|-----------------|-----------------|-----------------|
D|-----------------|-----------------|-----------------|-----------------|
A|-----------------|-----------------|-----------------|-----------------|
E|-----------------|-----------------|-----------------|-----------------|

Bass:
G|-----------------|-----------------|-----------------|-----------------|
D|-----------------|-----------------|-----------------|-----------------|
A|---------1-1-1-1-|---------4-4-4-4-|---------1-1-1-1-|---------4-4-4-4-|
E|-1-1-1-1---------|-4-4-4-4---------|-1-1-1-1---------|-4-4-4-4---------|

Guitar:
e|---------1-------|-----------------|---------1-------|-----------------|
B|--------1--------|-----------------|--------1--------|-----------------|
G|-----------------|-----------------|-----------------|-----------------|
D|-----------------|-----------------|-----------------|-----------------|
A|-----------------|-----------------|-----------------|-----------------|
E|-----------------|-----------------|-----------------|-----------------|
           I'm worse at what what I do best, and for this gift I feel blessed

Bass:
G|-----------------|-----------------|-----------------|-----------------|
D|-----------------|-----------------|-----------------|-----------------|
A|---------1-1-1-1-|---------4-4-4-4-|---------1-1-1-1-|---------4-4-4-4-|
E|-1-1-1-1---------|-4-4-4-4---------|-1-1-1-1---------|-4-4-4-4---------|

Guitar:
e|---------1-------|-----------------|---------1-------|-----------------|
B|--------1--------|-----------------|--------1--------|-----------------|
G|-----------------|-----------------|-----------------|-----------------|
D|-----------------|-----------------|-----------------|-----------------|
A|-----------------|-----------------|-----------------|-----------------|
E|-----------------|-----------------|-----------------|-----------------|
    our little group, has always been, and always will until the end

PRECHORUS
Bass:
G|-----------------|-----------------|-----------------|-----------------|
D|-----------------|-----------------|-----------------|-----------------|
A|---------1-1-1-1-|---------4-4-4-4-|---------1-1-1-1-|---------4-4-4-4-|
E|-1-1-1-1---------|-4-4-4-4---------|-1-1-1-1---------|-4-4-4-4---------|

Guitar:
e|-----1-----1----1|-----1-----1----1|-----1-----1----1|-----1-----1----1|
B|-1-1---1-1---1-1-|-1-1---1-1---1-1-|-1-1---1-1---1-1-|-1-1---1-1---1-1-|
G|-----------------|-----------------|-----------------|-----------------|
D|-----------------|-----------------|-----------------|-----------------|
A|-----------------|-----------------|-----------------|-----------------|
E|-----------------|-----------------|-----------------|-----------------|

 Hello hello hello | Hello hello hello| Hello, hello, hello| Hello, hello, hello
           how low 	       how low		    how low		

Guitar:
e|-----------------|--3--3-3----------|-----------------|--3--3-3----------|
B|-------------3-3-|--------------1-1-|-----------------|--------------1-1-|
G|-------------3-3-|------------------|-------------3-3-|------------------|
D|-2--2-2-xxxx-3-3-|---------xxxx-2-2-|-2--2-2-xxxx-3-3-|---------xxxx-2-2-|
A|-2--2-2-xxxx-----|--3--3-3-xxxx-3-3-|-2--2-2-xxxx-3-3-|--2--2-2-xxxx-3-3-|
E|--------xxxx-----|--2--2-2-xxxx-----|--------xxxx-----|--3--3-3-xxxx-----|

  With the lights out, its less dangerous here we are now, entertain us

e|-----------------|--3--3-3----------|-----------------|--3--3-3----------|
B|-------------3-3-|--------------1-1-|-----------------|--------------1-1-|
G|-------------3-3-|------------------|-------------3-3-|------------------|
D|-2--2-2-xxxx-3-3-|---------xxxx-2-2-|-2--2-2-xxxx-3-3-|---------xxxx-2-2-|
A|-2--2-2-xxxx-----|--3--3-3-xxxx-3-3-|-2--2-2-xxxx-3-3-|--2--2-2-xxxx-3-3-|
E|--------xxxx-----|--2--2-2-xxxx-----|--------xxxx-----|--3--3-3-xxxx-----|

  I feel stupid, and contagious,      here we are now, entertain us

e|-----------------|--3--3-3----------|-----------------|--3--3-3----------|
B|-------------3-3-|--------------1-1-|-----------------|--------------1-1-|
G|-------------3-3-|------------------|-------------3-3-|------------------|
D|-2--2-2-xxxx-3-3-|---------xxxx-2-2-|-2--2-2-xxxx-3-3-|---------xxxx-2-2-|
A|-2--2-2-xxxx-----|--3--3-3-xxxx-3-3-|-2--2-2-xxxx-3-3-|--2--2-2-xxxx-3-3-|
E|--------xxxx-----|--2--2-2-xxxx-----|--------xxxx-----|--3--3-3-xxxx-----|

  A mulatto, 		An albino	A mosquito	  My libido, yeah

e|---------------|----------------|---------------|----------------|
B|---------------|----------------|---------------|----------------|
G|-------------3^|-------3-3------|-------------3^|-------3-3------|
D|-3--3-3-4-4----|-3-3-3-3-3--6-6-|-3--3-3-4-4----|-3-3-3-3-3--6-6-|
A|-3--3-3-4-4----|-3-3-3-1-1--6-6-|-3--3-3-4-4----|-3-3-3-1-1--6-6-|
E|-1--1-1-2-2----|-1-1-1------4-4-|-1--1-1-2-2----|-1-1-1------4-4-|
              hey!                              hey!

Guitar One (Solo):
-Guitar Two plays chorus riff 6 times
e|--------------|---------------|-------------|-------------|
B|--------------|---------------|-------------|-------------|
G|-----8h10-----|-8-8^----6--5--|-6--5--------|-------------|
D|-10--------6--|---------------|-------8-6-8-|-8^----6--5--|
A|--------------|---------------|-------------|-------------|
E|--------------|---------------|-------------|-------------|

e|--------------|---------------|-------------|-------------|
B|--------------|---------------|-------------|-------------|
G|-----8h10-----|-8-8^----6--5--|-6--5--------|-------------|
D|-10--------6--|---------------|-------8-6-8-|-8^----6--5--|
A|--------------|---------------|-------------|-------------|
E|--------------|---------------|-------------|-------------|

e|-------------|--------------|-------------|--------------|
B|-------------|--------------|-------------|--------------|
G|-------------|--------------|-------------|--------------|
D|-6--5--6--5--|-6--5--6/5----|-6--5--6--5--|-6--5--6/5----|
A|-------------|-----------8--|-------------|-----------8~~|
E|-------------|--------------|-------------|--------------|

VERSE:
Bass:
G|-----------------|-----------------|-----------------|-----------------|
D|-----------------|-----------------|-----------------|-----------------|
A|---------1-1-1-1-|---------4-4-4-4-|---------1-1-1-1-|---------4-4-4-4-|
E|-1-1-1-1---------|-4-4-4-4---------|-1-1-1-1---------|-4-4-4-4---------|

G|-----------------|-----------------|-----------------|-----------------|
D|-----------------|-----------------|-----------------|-----------------|
A|---------1-1-1-1-|---------4-4-4-4-|---------1-1-1-1-|---------4-4-4-4-|
E|-1-1-1-1---------|-4-4-4-4---------|-1-1-1-1---------|-4-4-4-4---------|
  And I forget just what it takes and yet I guess it makes me smile

G|-----------------|-----------------|-----------------|-----------------|
D|-----------------|-----------------|-----------------|-----------------|
A|---------1-1-1-1-|---------4-4-4-4-|---------1-1-1-1-|---------4-4-4-4-|
E|-1-1-1-1---------|-4-4-4-4---------|-1-1-1-1---------|-4-4-4-4---------|
  I've found it hard, its hard to find, oh well whatever never mind

PRECHORUS
Bass:
G|-----------------|-----------------|-----------------|-----------------|
D|-----------------|-----------------|-----------------|-----------------|
A|---------1-1-1-1-|---------4-4-4-4-|---------1-1-1-1-|---------4-4-4-4-|
E|-1-1-1-1---------|-4-4-4-4---------|-1-1-1-1---------|-4-4-4-4---------|

Guitar:
e|-----1-----1----1|-----1-----1----1|-----1-----1----1|-----1-----1----1|
B|-1-1---1-1---1-1-|-1-1---1-1---1-1-|-1-1---1-1---1-1-|-1-1---1-1---1-1-|
G|-----------------|-----------------|-----------------|-----------------|
D|-----------------|-----------------|-----------------|-----------------|
A|-----------------|-----------------|-----------------|-----------------|
E|-----------------|-----------------|-----------------|-----------------|

 Hello hello hello | Hello hello hello| Hello, hello, hello| Hello, hello, hello
           how low 	       how low		    how low		

Guitar:
e|-----------------|--3--3-3----------|-----------------|--3--3-3----------|
B|-------------3-3-|--------------1-1-|-----------------|--------------1-1-|
G|-------------3-3-|------------------|-------------3-3-|------------------|
D|-2--2-2-xxxx-3-3-|---------xxxx-2-2-|-2--2-2-xxxx-3-3-|---------xxxx-2-2-|
A|-2--2-2-xxxx-----|--3--3-3-xxxx-3-3-|-2--2-2-xxxx-3-3-|--2--2-2-xxxx-3-3-|
E|--------xxxx-----|--2--2-2-xxxx-----|--------xxxx-----|--3--3-3-xxxx-----|

  With the lights out, its less dangerous here we are now, entertain us

e|-----------------|--3--3-3----------|-----------------|--3--3-3----------|
B|-------------3-3-|--------------1-1-|-----------------|--------------1-1-|
G|-------------3-3-|------------------|-------------3-3-|------------------|
D|-2--2-2-xxxx-3-3-|---------xxxx-2-2-|-2--2-2-xxxx-3-3-|---------xxxx-2-2-|
A|-2--2-2-xxxx-----|--3--3-3-xxxx-3-3-|-2--2-2-xxxx-3-3-|--2--2-2-xxxx-3-3-|
E|--------xxxx-----|--2--2-2-xxxx-----|--------xxxx-----|--3--3-3-xxxx-----|

  I feel stupid, and contagious,      here we are now, entertain us

e|-----------------|--3--3-3----------|-----------------|--3--3-3----------|
B|-------------3-3-|--------------1-1-|-----------------|--------------1-1-|
G|-------------3-3-|------------------|-------------3-3-|------------------|
D|-2--2-2-xxxx-3-3-|---------xxxx-2-2-|-2--2-2-xxxx-3-3-|---------xxxx-2-2-|
A|-2--2-2-xxxx-----|--3--3-3-xxxx-3-3-|-2--2-2-xxxx-3-3-|--2--2-2-xxxx-3-3-|
E|--------xxxx-----|--2--2-2-xxxx-----|--------xxxx-----|--3--3-3-xxxx-----|

  A mulatto, 		An albino	A mosquito	  My libido, 

e|-----------------|--3--3-3----------|-----------------|--3--3-3----------|
B|-------------3-3-|--------------1-1-|-----------------|--------------1-1-|
G|-------------3-3-|------------------|-------------3-3-|------------------|
D|-2--2-2-xxxx-3-3-|---------xxxx-2-2-|-2--2-2-xxxx-3-3-|---------xxxx-2-2-|
A|-2--2-2-xxxx-----|--3--3-3-xxxx-3-3-|-2--2-2-xxxx-3-3-|--2--2-2-xxxx-3-3-|
E|--------xxxx-----|--2--2-2-xxxx-----|--------xxxx-----|--3--3-3-xxxx-----|
  
  A denial	     A denial		A denial	 A denial

e|-----------------|--3--3-3----------|-----------------|--3--3-3----------|
B|-------------3-3-|--------------1-1-|-----------------|--------------1-1-|
G|-------------3-3-|------------------|-------------3-3-|------------------|
D|-2--2-2-xxxx-3-3-|---------xxxx-2-2-|-2--2-2-xxxx-3-3-|---------xxxx-2-2-|
A|-2--2-2-xxxx-----|--3--3-3-xxxx-3-3-|-2--2-2-xxxx-3-3-|--2--2-2-xxxx-3-3-|
E|--------xxxx-----|--2--2-2-xxxx-----|--------xxxx-----|--3--3-3-xxxx-----|
  
  A denial	     A denial		A denial	 A denial

e|--------------|--------------|
B|--------------|--------------|
G|--------------|--------------|
D|-2------------|--------------|
A|-2------------|--------------|
E|--------------|--------------|
  A denial....................
Tap to rate this tab
 
# A B C D E F G H I J K L M N O P Q R S T U V W X Y Z