Song name
# A B C D E F G H I J K L M N O P Q R S T U V W X Y Z

Nirvana - Heat Shapped Box tab

Exellent Song! Ive taken time and care over this tab so dont think its just like the other tabs of this! Please Rate it And Try it!
Enjoy!

Drop D

Notation Legend
^=bend
/=slide
~=let ring

Heart-Shapped Box

Intro
E|--------------------------------------------------------|
B|--------------------------------------------------------|
G|------2-------------------------------2-----------------|
D|----2---2------3--------0---0---0~--2---2------3--------|
A|--0----------3---3----0---0---0-----0--------3----------|
D|-----------3--------0----------------------3-------3-0--|

E|--------------------------|
B|--------------------------|
G|---------------------0----|
D|--2/4--4---4-----4---0----|
A|---------0---3---3--------|
D|--------------------------|

Verse(s)
E|-----------------------------------------------------------|
B|--------2--------------------------------------------------|
G|--------2----------------------------------2---------------|
D|--2---2----2-------3---------0---0---0~--2---2------3------|
A|--0--------------3---3-----0---0---0-----0--------3---3----|
D|---------------3---------0----------------------3--------0-|

E|---------------------------|
B|---------------------------|
G|---------------------------|
D|--2/4-4---4---4---4---0----|
A|--------0---3-----3---0----|
D|---------------------------|

E|-----------------------------------------------------------|
B|--------2--------------------------------------------------|
G|--------2---------------------------------2----------------|
D|--2---2---2-------3---------0---0---0~--2---2-------3------|
A|--0-------------3---3-----0---0---0-----0---------3---3----|
D|--------------3---------0-----------------------3--------0-|

E|----------------------------|
B|----------------------------|
G|-------------------0--------|
D|--2/4-4---4--------0--------|
A|--------0---3--3------------|
D|----------------------------|

Chorus
E|---------------------------------------------------------|
B|---------------------------------------------------------|
G|----------4^5---------4^5---------4^5---------------4^5--|
D|--2---2--------3---3-------3---3---------3---3---0-------|
A|--0---0--------3---3-------3---3-------0---3-----0-------|
D|---------------3---3-------3---3-------------------------|

E|-----------------------------------------------------------|
B|-----------------------------------------------------------|
G|----------4^5---------4^5-----------------------4^5-5------|
D|--3---3--------3---3-------3-3-3-3-3-3-3-3---0-------------|
A|--3---3--------3---3-------3-3-3-3-3-3-3-3---0-------------|
D|--3---3--------3---3-------3-3-3-3-3-3-3-3---0-------------|

Solo
E|-----------------------------------------------------------|
B|-------8^(10)---6-----6^(8)-----4^(6)----------8^(10)---6--|
G|---------------------------------------5-4-----------------|
D|----7--------------5---------3--------------7--------------|
A|-----------------------------3-----------------------------|
D|-----------------------------------------------------------|

E|-------------------------------------|
B|-----6^(8)-----4^(6)-----------------|
G|----------------------5-4-------2----|
D|--5---------3--------------2----2----|
A|------------3--------------0----0----|
D|-------------------------------------|

End
E|-----------------------------------------------------------|
B|-----------------------------------------------------------|
G|-----------------------4^5------------------------4^5-5-5--|
D|--3-3-3-3-3-3-3-3---0--------3-3-3-3-3-3-3-3---0-----------|
A|--3-3-3-3-3-3-3-3---0--------3-3-3-3-3-3-3-3---0-----------|
D|--3-3-3-3-3-3-3-3---0--------3-3-3-3-3-3-3-3---0-----------|

E|----------------------------------------|
B|----------------------------------------|
G|----------------------------------------|
D|--3-3-3-3-3-3-3-3---0----4-4-4-4--------|
A|--3-3-3-3-3-3-3-3---0------------3-3----|
D|--3-3-3-3-3-3-3-3---0-------------------|

Dave Grung

dave_grunge_942@hotmail.com
Tap to rate this tab
# A B C D E F G H I J K L M N O P Q R S T U V W X Y Z