Song name
# A B C D E F G H I J K L M N O P Q R S T U V W X Y Z

Nirvana - About A Girl tab

#----------------------------------PLEASE NOTE--------------------------------#
#This file is the author's own work and represents their interpretation of the#
#song. You may only use this file for private study, scholarship, or research.#
#-----------------------------------------------------------------------------#
#-- File created with Instab - http://www.pconline.com/~smcarey/instab.html --#
#-----------------------------------------------------------------------------#

Author/Artist: Nirvana
Title: About A Girl
Album: MTV Unplugged
Transcribed by: ronnie
Email: ronakadracon@hotmail.com

This is my first tab so any feedback is appreciated.
Tuning is 1/2 step down Eb, Ab, Db, Gb, Bb, Eb

-0--0--0-----3--3-----|------0--------3--3------|-----------------------------
-0--0--0-----0--0--0--|------0--0-----0--0---0--|-----------------------------
-x--x--0--------0--0--|---------0--0-----0---0--|-----------------------------
-2--2--0--------0--0--|---------0--0-----0---0--|-----------------------------
-2--2--0--------------|--2------0------------0--|-----------------------------
-0--0--0--3-----3-----|--0------0--3-----3------|-----------------------------
 VERSE                   Guitar 1 repeat above thru verses. Guitar2 strum     

---------0----0---3-----------------------------------------------------------
---------0----0---0-----------------------------------------------------------
---------x----0---0-----------------------------------------------------------
---------2----0---0-----------------------------------------------------------
---------2----0---x-----------------------------------------------------------
---------0----0---3-----------------------------------------------------------
 chords E5  Em11  G    in time with guitar 1.                                 

------------------------0--|-------0---0-----0---0---0---|--------------------
---6--6---6-----6---6---0--|-------0---0-----0---0---0---|---6---6--6-----6---
---6--6---6-----6---6------|-------3---3-----3---3-------|---6---6--6-----6---
---6--6---6-----6---6------|--4----4---4-----4---4-------|---6---6--6-----6---
---4--4---4----------------|--4-----------4--------------|---4---4--4---------
-------------4-------------|--2-----------2--------------|-------------4------
 CHORUS                                                                       

-----0---|-----0---0-----0---0---0--|--0----0--0------0--0--0--|--0--0--0-----
-6---0---|-----0---0-----0---0---0--|--0----0--0------0--0--0--|--2--2--2--5--
-6-------|-----3---3-----3---3------|--4----4--4------4--4--4--|--2--2--2--5--
-6-------|--4--4---4-----4---4------|--2----2--2---------------|--2-----2--5--
---------|--4---------4-------------|--2----2--2---2-----------|--0-----0--3--
---------|--2---------2-------------|--0----0--0---0-----------|--------------
                                                                              

----------|--------------------------------------|----------------------------
-5--5--0--|------------------------9/12--12--12--|------------------------9---
-5--5--0--|------------7---7/9-----9/12--12--12--|-----------7--7--7/9----9---
-5--5--0--|---------5--7---7/9--9--9/12--12--12--|--------5--7--7--7/9----9---
-3--3-----|-----5h7------------------------------|----5h7---------------0-----
----------|--0-----------------------------------|--0-------------------------
            GUITAR SOLO guitar 2 strum E5 Em11 G  while guitar 1 plays solo   

--------------|--------------------------------------|------------------------
---12---12----|---------------7/9-----9--12------12--|-----------------7/9----
---12---12----|-------------7-7/9--9--9--12--12--12--|-----------------7/9----
---12---12----|--------5--7-7-7/9--9--9--12--12--12--|--------5--7--7--7/9----
-0----0----0--|----5h7-------------------------------|----5h7-----------------
--------------|--0-----------------------------------|--0---------------------
                                                                              

----------------------|--0---0---0------0--0--0--|-0--0--0--------------------
-9--9--9/12---12---12-|--0---0---0------0--0--0--|-2--2--2---5-5-5-5-5-5-5-5--
-9--9--9/12---12---12-|--4---4---4------4--4--4--|-2--2--2---5-5-5-5-5-5-5-5--
-9--9--9/12---12---12-|--2---2---2---------------|-2-----2---5-5-5-5-5-5-5-5--
----------------------|--2---2---2---2-----------|-0-----0---3-3-3-3-3-3-3-3--
----------------------|--0---0---0---0-----------|----------------------------
                         Last Part  (I cant see you every night)              

----------------|--------------0----0--3--------------------------------------
-5-5-5-5-5-5-5--|--------------0----0--0--------------------------------------
-5-5-5-5-5-5-5--|--------------x----0--0--------------------------------------
-5-5-5-5-5-5-5--|--------------2----0--0--------------------------------------
-3-3-3-3-3-3-3--|--------------2----0--x--------------------------------------
----------------|--------------0----0--3--------------------------------------
                  Strum Chords E5 Em11 G   to the end of song.                

Tap to rate this tab
 
# A B C D E F G H I J K L M N O P Q R S T U V W X Y Z