Song name
# A B C D E F G H I J K L M N O P Q R S T U V W X Y Z

Nirvana - Lake Of Fire Acoustic tab

chorse:
E|--------------------------------------------------|
B|------------------5-5-5-3-------------------------|
G|-----------3------5-5-5-3-----------3--5-5-----3--|
D|--5-5--3-3-3--5-5----------5-5--3-3-3--5-5-5-3-3--|
A|--5-5--3-3-1--5-5-3-3-3-1--5-5--3-3-1--3-3-5-3-1--|
E|--3-3--1-1----3-3----------3-3--1-1--------3-1----|

E|-------------------------------------|
B|11-11-11-11-7-7-9-11-11-11-11-5-5-7--|
G|10-10-10-10-5-5-7-10-10-10-10-5-5-7--|
D|-------------------------------------|
A|-------------------------------------|
E|-------------------------------------|

verse:
E|--1-1-1-1-1-1-----1-1-1-1-----1-1-0-1-1-0-1-1-0-1-1-|
B|--3-3-3-3-3-3-2-2-3-3-3-3-1-1-3-3-3-3-3-3-3-3-3-3-3-|
G|--2-2-3-3-2-2-0-0-2-2-3-3-0-0-2-2-2-2-2-2-2-2-2-2-2-|
D|--------------2-2---------2-2-----------------------|
A|--------------------------3-3-----------------------|
E|----------------------------------------------------|

thanks :D
Tap to rate this tab
 
# A B C D E F G H I J K L M N O P Q R S T U V W X Y Z