Nirvana - Jesus Doesnt Want Me For A Sunbeam Live tab

This is my first tab, so I don't know if it's 100% correct, but it sounds right to 
me when I play it.
-----------------------------------------------------------------------------
	                Jesus doesn't want me as a sunbeam - Nirvana
-----------------------------------------------------------------------------
Tabbed by: Rakshara Ottapa
Email: jpdealmeida06@hotmail.com

Tuning: Eb 

Riff:
eb|--------4-2-0-------------------------|\
Bb|---5-5---------3-3--5-3-2------3------| \
Gb|--------------------------2-2----2-2--|  \  2
Db|--------------------------------------|  /  x
Ab|--------------------------------------| /
Eb|--------------------------------------|/

E          D              A
Jesus don't want me for a sunbeam. 
 E                 D              A
'Cause sunbeams are not made like me.
E                   D
Don't expect me to cry
         A 
for all the reasons you had to die. 
E          D
Don't ever ask your
        A
love of me.

E                 D
Don't expect me to cry.
E                 D
Don't expect me to lie.
E                 D        A
Don't expect me to die for thee.

Riff:
eb|--------4-2-0-------------------------|\
Bb|---5-5---------3-3--5-3-2------3------| \
Gb|--------------------------2-2----2-2--|  \  2
Db|--------------------------------------|  /  x
Ab|--------------------------------------| /
Eb|--------------------------------------|/

Jesus don't want me for a sunbeam. 
'Cause sunbeams are not made like me.
Don't expect me to cry 
for all the reasons you had to die. 
Don't ever ask your
love of me.

Don't expect me to cry.
Don't expect me to lie.
Don't expect me to die for thee.

Riff:
eb|--------4-2-0-------------------------|\
Bb|---5-5---------3-3--5-3-2------3------| \
Gb|--------------------------2-2----2-2--|  \  2
Db|--------------------------------------|  /  x
Ab|--------------------------------------| /
Eb|--------------------------------------|/

Jesus don't want me for a sunbeam. 
'Cause sunbeams are not made like me.
Don't expect me to cry 
for all the reasons you had to die. 
Don't ever ask your
love of me.

Don't expect me to cry.
Don't expect me to lie.
Don't expect me to die.
Don't expect me to cry.
Don't expect me to lie.
Don't expect me to die for thee.

Riff:
eb|--------4-2-0---------------------------------4-2-0--------------------|
Bb|---5-5---------3-3--5-3-2------3---------5-5---------3-3--5-7-9-10-10--| 
Gb|--------------------------2-2----2-2-----------------------------------| 
Db|-----------------------------------------------------------------------|  
Ab|-----------------------------------------------------------------------| 
Eb|-----------------------------------------------------------------------|

Those solos aren't made on a guitar so there may be mistakes, if you find anything 
wrong, send me an email please...
Tap to rate this tab
 
# A B C D E F G H I J K L M N O P Q R S T U V W X Y Z