Song name
# A B C D E F G H I J K L M N O P Q R S T U V W X Y Z

Nirvana - School tab

Band: Nirvana
Song: School
Album: Bleach
Year: 1989

Intro:
1: ----------------------------------------|
2: ----------------------------------------|
3: ----------------------------------------|
4: ----------------------------------------|
5: ----------------------------------------|
6: 0-----(0)-----(0)-----------------------|

Verse:
1: ----------------------------------------|
2: ----------------------------------------|
3: ----------------------------------------|
4: ----------------------------------------|
5: -)------)-----------)~~~----------------|
6: 0--0-0-5-0-0-5-0-0-0-0-0-5--------------|

Chorus:
1:
2: -----------------------------------------|
3: 5--5--5-5-x-x----------------------------|
4: 5--5--5-5-x-x-7-7-7--2--2--2-2-x-x-5-5-5-|
5: 3--3--3-3-x-x-7-7-7--2--2--2-2-x-x-5-5-5-|
6: --------------5-5-5--0--0--0-0-x-x-3-3-3-|

Bridge:
1: ----------------------------------------|
2: ----------------------------------------|
3: ----------------------------------------|
4: -------11---11---11---------------------|
5: -------10---10---10---------------------|
6: 0--0-0----0----0------------------------|

Solo:
1: -)--)(----)(----------------------------|
2: 2--2-(2)-2-(2)--------------------------|
3: 2--2-(2)-2-(2)-0----------------2-0-2---|
4: ----------------2-0-2-(0)---------------|
5: ----------------------------------------|
6: --------------------------3/-0----------|

1: ----------------------------------------|
2: ------------7---------------------------|
3:(2)0-2/7-7-7-7-79-(11)\----0-------------|
4: -----------------------/9---9^7^0-9^7^0-|
5: ----------------------------------------|
6: ----------------------------------------|

1: -----------------------------------------|
2: -----)------------------)(---------------|
3: 2-2-2-2-2-2~~~~~-----0-2-0-0-2-(0)-------|
4: ----------------0-0---------------2------|
5: -----------------------------------------|
6: -------------------------------------5-0-|

1: ----------------------------------------|
2: ------------------------11 8----8^10----|
3: ------2---2/7-7-7-7-9-7-------0---------|
4: --2-5---5-------------------------------|
5: 5---------------------------------------|
6: ----------------------------------------|

1: ----)--)10-10-10^9^7----7---------------|
2: 8^10-10--------------10---10-10-10^8----|
3: ----------------------------------------|
4: ----------------------------------------|
5: ----------------------------------------|
6: ----------------------------------------|

1: ----------------------------------------|
2: ----------------------------------------|
3: 9-7-7-9-7-7-9-9-9~~~~~-9-7-7-7\6-6-6\4--|
4: ----------------------------------------|
5: ----------------------------------------|
6: ----------------------------------------|

1: ----------------------------------------|
2: -)--------------------------------------|
3: 4-2-2^0-2-~~~~~~~~~~~~~~~~~~------------|
4: ----------------------------------------|
5: ----------------------------------------|
6: ----------------------------------------|

1: ----------------------------------------|
2: ----------------------------------------|
3: ----------------------------------------|
4: ----------------------------------------|
5: ----------------------------------------|
6: (11)\-----------------------------------|
Tap to rate this tab
 
# A B C D E F G H I J K L M N O P Q R S T U V W X Y Z