Song name
# A B C D E F G H I J K L M N O P Q R S T U V W X Y Z

Nirvana - Stay Away tab

INTRO/Chorus
E --------------------------------------------------------------------------|
B --------------------------------------------------------------------------|
G 7-77--------10-1010-------------------------------------------------------|
D 7-77--9-99--10-1010--10/9/10/9--------------------------------------------|
A 5-55--9-99--8--8-8---10/9/10/9--------------------------------------------|
E ------7-77-----------8-/7/8-/7--------------------------------------------|

BRIDGE
E --------------------------------------------------------------------------|
B --------------------------------------------------------------------------|
G 7~------------------------------------------------------------------------|
D 7~---9~-------------------------------------------------------------------|
A 5~---9~-------------------------------------------------------------------|
E -----7~-------------------------------------------------------------------|
Tap to rate this tab
 
# A B C D E F G H I J K L M N O P Q R S T U V W X Y Z