Nirvana - Breed tab

If Breed is on your setlist and you dont like having to change tuning between songs, you 
can use this in a drop d set without ever changing guitrs or touching the tuning keys...

Enjoy!


Intro x2 (Guitar 1 only)
E---------------------------------------------|
B---------------------------------------------|
G---------------------------------------------|
D-2-2-0-2-5~-0--------------------------------|
A-2-2-0-2-5~-0--------------------------------|
D-2-2-0-2-5~-0--------------------------------|

Intro Continued x6 (Guitars 1&2)
E---------------------------------------------|
B---------------------------------------------|
G---------------------------------------------|
D-2-2-0-2-5~-0--------------------------------|
A-2-2-0-2-5~-0--------------------------------|
D-2-2-0-2-5~-0--------------------------------|

Verse x4 (Guitars 1&2)
E---------------------------------------------|
B---------------------------------------------|
G---------------------------------------------|
D--12-------12-12-12---------12-12-12-12-11~--|
A--12-(x1)--12-12-12---(x6)--12-12-12-12-11~--|
D--12-------12-12-12---------12-12-12-12-11~--|

Chorus x4
E---------------------------------------------|
B---------------------------------------------|
G---------------------------------------------|
D--9-9-9-9--4---7-7-7-7--2--------------------|
A--9-9-9-9--4---7-7-7-7--2--------------------|
D--9-9-9-9--4---7-7-7-7--2--------------------|

Solo (guitar1)
E----------------------------------------------|
B-------------------------------19-19-19-18-18-|
G-17-17-17-16-16-16-15-15-14-14----------------|
D----------------------------------------------|
A----------------------------------------------|
D----------------------------------------------|

E----------------22-22-21-21-20-20-19-19-19-24~~-|
B-18-17-17-16-16---------------------------------|
G------------------------------------------------|
D------------------------------------------------|
A------------------------------------------------|
D------------------------------------------------|

Outro x1
E---------------------------------------------|
B---------------------------------------------|
G---------------------------------------------|
D-2-2-0-2-------------------------------------|
A-2-2-0-2--(sharp cut off)--------------------|
D-2-2-0-2-------------------------------------|

Just play these in this order:

Guitar1:             Guitar2:

Intro                (wait)
Intro continued      Intro continued
verse                verse(optional)
chorus               Chorus
verse                verse (optional)
chorus               chorus
solo                 intro continued
chorus               chorus
intro continued      intro continued
outro                outro (optional)
Tap to rate this tab
 
# A B C D E F G H I J K L M N O P Q R S T U V W X Y Z