Song name
# A B C D E F G H I J K L M N O P Q R S T U V W X Y Z

Nirvana - Do Re Mi tab

Song: Do Re Mi
Album: DEMO

Tabbed by: dkeenan

Tuning: Half-Step Down

*e-mail me at xraptor1147@aim.com or message me on UG for any questions or clarifications*

This is a song that was actually supposed to be released on an EP that would be a
preview of Lollapalooza '94. It would've been recorded in studio as the original Nirvana Trio
and probably released along with Butterfly, the other song recorded at Robert Lang 
Studios. My guess is that You Know Your Right would've been left off the EP because it was too
heavy and Opinion would be on it instead, because thats the sound Kurt was aiming for at 
this time and was also demoed in his last recording session. Anyway, here is the tab. Enjoy.



Intro


eb|--------------------------------------------------------------|
Bb|-8--x-8-8-8-8-x------------------5-5-x--5-5-5-5-x-------------|
Gb|-8--x-8-8-8-8-x------------------5-5-x--5-5-5-5-x-------------|
Db|-8--x-8-8-8-8-x-5-5-x--5-5-5-5-x-5-5-x--5-5-5-5-x-3-x-3-3-3-3-|
Ab|-6--x-6-6-6-6-x-5-5-x--5-5-5-5-x-3-3-x--3-3-3-3-x-3-x-3-3-3-3-|
Eb|----------------3-3-x--3-3-3-3-x------------------1-x-1-1-1-1-|


eb|---------------|
Bb|---------------|
Gb|---------------|
Db|-3-3-3-3-3-3-3-|
Ab|-3-3-3-3-3-3-3-|
Eb|-1-1-1-1-1-1-1-|



Verse 1


eb|--------------------------------------------------------------|
Bb|-8--x-8-8-8-8-x------------------5-5-x--5-5-5-5-x-------------|
Gb|-8--x-8-8-8-8-x------------------5-5-x--5-5-5-5-x-------------|
Db|-8--x-8-8-8-8-x-5-5-x--5-5-5-5-x-5-5-x--5-5-5-5-x-3-x-3-3-3-3-|
Ab|-6--x-6-6-6-6-x-5-5-x--5-5-5-5-x-3-3-x--3-3-3-3-x-3-x-3-3-3-3-|
Eb|----------------3-3-x--3-3-3-3-x------------------1-x-1-1-1-1-|


eb|--------------------------------------------------------------|
Bb|-8--x-8-8-8-8-x------------------5-5-x--5-5-5-5-x-------------|
Gb|-8--x-8-8-8-8-x------------------5-5-x--5-5-5-5-x-------------|
Db|-8--x-8-8-8-8-x-5-5-x--5-5-5-5-x-5-5-x--5-5-5-5-x-3-x-3-3-3-3-|
Ab|-6--x-6-6-6-6-x-5-5-x--5-5-5-5-x-3-3-x--3-3-3-3-x-3-x-3-3-3-3-|
Eb|----------------3-3-x--3-3-3-3-x------------------1-x-1-1-1-1-|


eb|--------------------------------------------------------------|
Bb|-8--x-8-8-8-8-x------------------5-5-x--5-5-5-5-x-------------|
Gb|-8--x-8-8-8-8-x------------------5-5-x--5-5-5-5-x-------------|
Db|-8--x-8-8-8-8-x-5-5-x--5-5-5-5-x-5-5-x--5-5-5-5-x-3-x-3-3-3-3-|
Ab|-6--x-6-6-6-6-x-5-5-x--5-5-5-5-x-3-3-x--3-3-3-3-x-3-x-3-3-3-3-|
Eb|----------------3-3-x--3-3-3-3-x------------------1-x-1-1-1-1-|


Pre-Chorus 1


eb|---------------------------------|
Bb|---------------------------------|
Gb|-3--x--3-3--x--3-3--x--3-----4-4-|
Db|-3--x--3-3--x--3-3--x--3-6-6-4-4-|
Ab|-1--x--1-1--x--1-1--x--1-6-6-2-2-|
Eb|-------------------------4-4-----|


eb|---------------------------------|
Bb|---------------------------------|
Gb|-3--x--3-3--x--3-3--x--3-----4-4-|
Db|-3--x--3-3--x--3-3--x--3-6-6-4-4-|
Ab|-1--x--1-1--x--1-1--x--1-6-6-2-2-|
Eb|-------------------------4-4-----|


eb|---------------------------------|
Bb|---------------------------------|
Gb|-3--x--3-3--x--3-3--x--3-----4-4-|
Db|-3--x--3-3--x--3-3--x--3-6-6-4-4-|
Ab|-1--x--1-1--x--1-1--x--1-6-6-2-2-|
Eb|-------------------------4-4-----|


eb|--------------------------------------------------------|
Bb|--------------------------------------------------------|
Gb|---------------------------------6--------6-6-6-6-6-6-6-|
Db|-3--x--3-3--x--3-3--x--3-3-3-3-3-6--------6-6-6-6-6-6-6-|
Ab|-3--x--3-3--x--3-3--x--3-3-3-3-3-5--------4-4-4-4-4-4-4-|
Eb|-1--x--1-1--x--1-1--x--1-1-1-1-1------------------------|


Chorus 1


eb|----------------------------------|
Bb|----------------------------------|
Gb|------------------8--x--8-8-8-8-8-|
Db|-5--x--5-5-5-5-5--8--x--8-8-8-8-8-|
Ab|-5--x--5-5-5-5-5--6--x--6-6-6-6-6-|
Eb|-3--x--3-3-3-3-3------------------|


eb|----------------------------------|
Bb|----------------------------------|
Gb|------------------8--x--8-8-8-8-8-|
Db|-5--x--5-5-5-5-5--8--x--8-8-8-8-8-|
Ab|-5--x--5-5-5-5-5--6--x--6-6-6-6-6-|
Eb|-3--x--3-3-3-3-3------------------|


eb|--------------------|
Bb|--------------------|
Gb|------------------8-|
Db|-5--x--5-5-5-5-5--8-|
Ab|-5--x--5-5-5-5-5--6-|
Eb|-3--x--3-3-3-3-3----|



Post-Chorus 1


eb|-----------------|-----------------|-----------------|-----------------|
Bb|-----------------|-----------------|-----------------|-----------------|
Gb|-----------------|-----------------|-----------------|-----------------|
Db|-1-0-------------|-1-0-------------|-1-0-------------|-1-0-----0-0-0-0-|
Ab|-----3-1---------|-----3-1---------|-----3-1---------|-----3-1-x-x-x-x-|
Eb|---------6-5-3-1-|---------6-5-3-1-|---------6-5-3-2-|---------6-5-3-0-|



Verse 2


eb|--------------------------------------------------------------|
Bb|-8--x-8-8-8-8-x------------------5-5-x--5-5-5-5-x-------------|
Gb|-8--x-8-8-8-8-x------------------5-5-x--5-5-5-5-x-------------|
Db|-8--x-8-8-8-8-x-5-5-x--5-5-5-5-x-5-5-x--5-5-5-5-x-3-x-3-3-3-3-|
Ab|-6--x-6-6-6-6-x-5-5-x--5-5-5-5-x-3-3-x--3-3-3-3-x-3-x-3-3-3-3-|
Eb|----------------3-3-x--3-3-3-3-x------------------1-x-1-1-1-1-|


eb|--------------------------------------------------------------|
Bb|-8--x-8-8-8-8-x------------------5-5-x--5-5-5-5-x-------------|
Gb|-8--x-8-8-8-8-x------------------5-5-x--5-5-5-5-x-------------|
Db|-8--x-8-8-8-8-x-5-5-x--5-5-5-5-x-5-5-x--5-5-5-5-x-3-x-3-3-3-3-|
Ab|-6--x-6-6-6-6-x-5-5-x--5-5-5-5-x-3-3-x--3-3-3-3-x-3-x-3-3-3-3-|
Eb|----------------3-3-x--3-3-3-3-x------------------1-x-1-1-1-1-|


eb|--------------------------------------------------------------|
Bb|-8--x-8-8-8-8-x------------------5-5-x--5-5-5-5-x-------------|
Gb|-8--x-8-8-8-8-x------------------5-5-x--5-5-5-5-x-------------|
Db|-8--x-8-8-8-8-x-5-5-x--5-5-5-5-x-5-5-x--5-5-5-5-x-3-x-3-3-3-3-|
Ab|-6--x-6-6-6-6-x-5-5-x--5-5-5-5-x-3-3-x--3-3-3-3-x-3-x-3-3-3-3-|
Eb|----------------3-3-x--3-3-3-3-x------------------1-x-1-1-1-1-|



Pre-Chorus 2


eb|---------------------------------|
Bb|---------------------------------|
Gb|-3--x--3-3--x--3-3--x--3-----4-4-|
Db|-3--x--3-3--x--3-3--x--3-6-6-4-4-|
Ab|-1--x--1-1--x--1-1--x--1-6-6-2-2-|
Eb|-------------------------4-4-----|


eb|---------------------------------|
Bb|---------------------------------|
Gb|-3--x--3-3--x--3-3--x--3-----4-4-|
Db|-3--x--3-3--x--3-3--x--3-6-6-4-4-|
Ab|-1--x--1-1--x--1-1--x--1-6-6-2-2-|
Eb|-------------------------4-4-----|


eb|---------------------------------|
Bb|---------------------------------|
Gb|-3--x--3-3--x--3-3--x--3-----4-4-|
Db|-3--x--3-3--x--3-3--x--3-6-6-4-4-|
Ab|-1--x--1-1--x--1-1--x--1-6-6-2-2-|
Eb|-------------------------4-4-----|


eb|--------------------------------------------------------|
Bb|--------------------------------------------------------|
Gb|---------------------------------6--------6-6-6-6-6-6-6-|
Db|-3--x--3-3--x--3-3--x--3-3-3-3-3-6--------6-6-6-6-6-6-6-|
Ab|-3--x--3-3--x--3-3--x--3-3-3-3-3-5--------4-4-4-4-4-4-4-|
Eb|-1--x--1-1--x--1-1--x--1-1-1-1-1------------------------|



Chorus 2


eb|----------------------------------|
Bb|----------------------------------|
Gb|------------------8--x--8-8-8-8-8-|
Db|-5--x--5-5-5-5-5--8--x--8-8-8-8-8-|
Ab|-5--x--5-5-5-5-5--6--x--6-6-6-6-6-|
Eb|-3--x--3-3-3-3-3------------------|


eb|----------------------------------|
Bb|----------------------------------|
Gb|------------------8--x--8-8-8-8-8-|
Db|-5--x--5-5-5-5-5--8--x--8-8-8-8-8-|
Ab|-5--x--5-5-5-5-5--6--x--6-6-6-6-6-|
Eb|-3--x--3-3-3-3-3------------------|


eb|----------------------------------|
Bb|----------------------------------|
Gb|------------------8--x--8-8-8-8-8-|
Db|-5--x--5-5-5-5-5--8--x--8-8-8-8-8-|
Ab|-5--x--5-5-5-5-5--6--x--6-6-6-6-6-|
Eb|-3--x--3-3-3-3-3------------------|


eb|----------------------------------|
Bb|----------------------------------|
Gb|------------------8--x--8-8-8-8-8-|
Db|-5--x--5-5-5-5-5--8--x--8-8-8-8-8-|
Ab|-5--x--5-5-5-5-5--6--x--6-6-6-6-6-|
Eb|-3--x--3-3-3-3-3------------------|


eb|--------------------|
Bb|--------------------|
Gb|------------------8-|
Db|-5--x--5-5-5-5-5--8-|
Ab|-5--x--5-5-5-5-5--6-|
Eb|-3--x--3-3-3-3-3----|



Post-Chorus 2


eb|-----------------|-----------------|-----------------|-----------------|
Bb|-----------------|-----------------|-----------------|-----------------|
Gb|-----------------|-----------------|-----------------|-0-0-0-0-0-0-0-0-|
Db|-1-0-------------|-1-0-------------|-1-0-------------|-1-0-x-x-0-0-0-0-|
Ab|-----3-1---------|-----3-1---------|-----3-1---------|-----3-1-x-x-x-x-|
Eb|---------6-5-3-1-|---------6-5-3-1-|---------6-5-3-2-|---------6-5-3-0-|



Interlude


eb|-----------------|-----------------|-----------------|-----------------|
Bb|-----------------|-----------------|-----------------|-----------------|
Gb|-0-0-0-0-0-0-0-0-|-0-0-0-0-0-0-0-0-|-0-0-0-0-0-0-0-0-|-0-0-0-0-0-0-0-0-|
Db|-1-0-x-x-0-0-0-0-|-1-0-x-x-0-0-0-0-|-1-0-x-x-0-0-0-0-|-1-0-x-x-0-0-0-0-|
Ab|-0-0-3-1-x-x-x-x-|-0-0-3-1-x-x-x-x-|-0-0-3-1-x-x-x-x-|-0-0-3-1-x-x-x-x-|
Eb|-0-0-0-0-6-5-3-1-|-0-0-0-0-6-5-3-1-|-0-0-0-0-6-5-3-1-|-0-0-0-0-6-5-3-1-|



Verse 3


eb|--------------------------------------------------------------|
Bb|-8--x-8-8-8-8-x------------------5-5-x--5-5-5-5-x-------------|
Gb|-8--x-8-8-8-8-x------------------5-5-x--5-5-5-5-x-------------|
Db|-8--x-8-8-8-8-x-5-5-x--5-5-5-5-x-5-5-x--5-5-5-5-x-3-x-3-3-3-3-|
Ab|-6--x-6-6-6-6-x-5-5-x--5-5-5-5-x-3-3-x--3-3-3-3-x-3-x-3-3-3-3-|
Eb|----------------3-3-x--3-3-3-3-x------------------1-x-1-1-1-1-|


eb|--------------------------------------------------------------|
Bb|-8--x-8-8-8-8-x------------------5-5-x--5-5-5-5-x-------------|
Gb|-8--x-8-8-8-8-x------------------5-5-x--5-5-5-5-x-------------|
Db|-8--x-8-8-8-8-x-5-5-x--5-5-5-5-x-5-5-x--5-5-5-5-x-3-x-3-3-3-3-|
Ab|-6--x-6-6-6-6-x-5-5-x--5-5-5-5-x-3-3-x--3-3-3-3-x-3-x-3-3-3-3-|
Eb|----------------3-3-x--3-3-3-3-x------------------1-x-1-1-1-1-|


eb|--------------------------------------------------------------|
Bb|-8--x-8-8-8-8-x------------------5-5-x--5-5-5-5-x-------------|
Gb|-8--x-8-8-8-8-x------------------5-5-x--5-5-5-5-x-------------|
Db|-8--x-8-8-8-8-x-5-5-x--5-5-5-5-x-5-5-x--5-5-5-5-x-3-x-3-3-3-3-|
Ab|-6--x-6-6-6-6-x-5-5-x--5-5-5-5-x-3-3-x--3-3-3-3-x-3-x-3-3-3-3-|
Eb|----------------3-3-x--3-3-3-3-x------------------1-x-1-1-1-1-|



Pre-Chorus 3


eb|---------------------------------|
Bb|---------------------------------|
Gb|-3--x--3-3--x--3-3--x--3-----4-4-|
Db|-3--x--3-3--x--3-3--x--3-6-6-4-4-|
Ab|-1--x--1-1--x--1-1--x--1-6-6-2-2-|
Eb|-------------------------4-4-----|


eb|---------------------------------|
Bb|---------------------------------|
Gb|-3--x--3-3--x--3-3--x--3-----4-4-|
Db|-3--x--3-3--x--3-3--x--3-6-6-4-4-|
Ab|-1--x--1-1--x--1-1--x--1-6-6-2-2-|
Eb|-------------------------4-4-----|


eb|---------------------------------|
Bb|---------------------------------|
Gb|-3--x--3-3--x--3-3--x--3-----4-4-|
Db|-3--x--3-3--x--3-3--x--3-6-6-4-4-|
Ab|-1--x--1-1--x--1-1--x--1-6-6-2-2-|
Eb|-------------------------4-4-----|


eb|--------------------------------------------------------|
Bb|--------------------------------------------------------|
Gb|---------------------------------6--------6-6-6-6-6-6-6-|
Db|-3--x--3-3--x--3-3--x--3-3-3-3-3-6--------6-6-6-6-6-6-6-|
Ab|-3--x--3-3--x--3-3--x--3-3-3-3-3-5--------4-4-4-4-4-4-4-|
Eb|-1--x--1-1--x--1-1--x--1-1-1-1-1------------------------|



Chorus 3


eb|----------------------------------|
Bb|----------------------------------|
Gb|------------------8--x--8-8-8-8-8-|
Db|-5--x--5-5-5-5-5--8--x--8-8-8-8-8-|
Ab|-5--x--5-5-5-5-5--6--x--6-6-6-6-6-|
Eb|-3--x--3-3-3-3-3------------------|


eb|----------------------------------|
Bb|----------------------------------|
Gb|------------------8--x--8-8-8-8-8-|
Db|-5--x--5-5-5-5-5--8--x--8-8-8-8-8-|
Ab|-5--x--5-5-5-5-5--6--x--6-6-6-6-6-|
Eb|-3--x--3-3-3-3-3------------------|



eb|----------------------------------|
Bb|----------------------------------|
Gb|------------------8--x--8-8-8-8-8-|
Db|-5--x--5-5-5-5-5--8--x--8-8-8-8-8-|
Ab|-5--x--5-5-5-5-5--6--x--6-6-6-6-6-|
Eb|-3--x--3-3-3-3-3------------------|


eb|----------------------------------|
Bb|----------------------------------|
Gb|------------------8--x--8-8-8-8-8-|
Db|-5--x--5-5-5-5-5--8--x--8-8-8-8-8-|
Ab|-5--x--5-5-5-5-5--6--x--6-6-6-6-6-|
Eb|-3--x--3-3-3-3-3------------------|


eb|----------------------------------|
Bb|----------------------------------|
Gb|------------------8--x--8-8-8-8-8-|
Db|-5--x--5-5-5-5-5--8--x--8-8-8-8-8-|
Ab|-5--x--5-5-5-5-5--6--x--6-6-6-6-6-|
Eb|-3--x--3-3-3-3-3------------------|



eb|----------------------------------|
Bb|----------------------------------|
Gb|------------------8--x--8-8-8-8-8-|
Db|-5--x--5-5-5-5-5--8--x--8-8-8-8-8-|
Ab|-5--x--5-5-5-5-5--6--x--6-6-6-6-6-|
Eb|-3--x--3-3-3-3-3------------------|


eb|----------------------------------|
Bb|----------------------------------|
Gb|------------------8--x--8-8-8-8-8-|
Db|-5--x--5-5-5-5-5--8--x--8-8-8-8-8-|
Ab|-5--x--5-5-5-5-5--6--x--6-6-6-6-6-|
Eb|-3--x--3-3-3-3-3------------------|


eb|--------------------|
Bb|--------------------|
Gb|------------------8-|
Db|-5--x--5-5-5-5-5--8-|
Ab|-5--x--5-5-5-5-5--6-|
Eb|-3--x--3-3-3-3-3----|



Post-Chorus 3


eb|-----------------|-----------------|-----------------|-----------------|
Bb|-----------------|-----------------|-----------------|-----------------|
Gb|-----------------|-----------------|-----------------|-----------------|
Db|-1-0-------------|-1-0-------------|-1-0-------------|-1-0-------------|
Ab|-----3-1---------|-----3-1---------|-----3-1---------|-----3-1---------|
Eb|---------6-5-3-1-|---------6-5-3-1-|---------6-5-3-1-|---------6-5-3-1-|



Lyrics:

[Verse 1]
If I may, and if I might,
Lie me down weeping.
And if I say what it's like,
I might be dreaming.
And if I may and what is right,
Summertime this evening.

[Pre-Chorus 1]
The years in his bonnet,
The things from his pocket,
The chains from his knowing life long dream.

[Chorus 1]
Do Re Mi. x 4

[Verse 2]
If I may and if I might,
Wake me up and see me.
If I do and if I lie,
Find me how this evening.
And If I may, cold as ice,
I may have deceived me.

[Pre-Chorus 2]
The ways in his socket,
The face from this moment.
The chains from his socket,
Bother me.

[Chorus 2]
Do Re Mi. x 6

[Verse 3]
Wish me good and wish me light,
Finding how seeing.
Is in their may, I just may cry,
Follow may completely.
I'm nowhere, and if I sigh,
Save me how teaming.
And if I may and if I might,
Golden gun to bleed.

[Pre-Chorus 3]
Rays in his pocket,
Rays from his wallet.
Chains from his armor,
Am I deep?

[Chorus 3]
Do Re Mi. x 8


LEARNING SONG:

This is honestly pretty easy, but if you were to just pick up a guitar recently and
looking for something to play, I'd pass on this one. However, anyone with some guitar
experience could have some fun learning this, and I suggest giving a shot at it anyway, 
because most of it is just power chords.
Tap to rate this tab
 
# A B C D E F G H I J K L M N O P Q R S T U V W X Y Z