Song name
# A B C D E F G H I J K L M N O P Q R S T U V W X Y Z

Nirvana - Plateau tab

Hey guys! Enjoy!




e|--2-------5--------2--------2----------5--------2---------5-------------|
b|------------------------------------------------------------------------|
g|------------------------------------------------------------------------|
d|------------------------------------------------------------------------|
a|------------------------------------------------------------------------|
E|--2-------5--------5--------2----------5--------2---------0-------------|
Play this three times
e|--2-------5--------2----------0--------2--------5---------0---------------|
b|--------------------------------------------------------------------------|
g|--------------------------------------------------------------------------|
d|--------------------------------------------------------------------------|
a|--------------------------------------------------------------------------|
E|--2-------5--------5----------0--------2--------5---------0---------------|
Tap to rate this tab
 
# A B C D E F G H I J K L M N O P Q R S T U V W X Y Z