Song name
# A B C D E F G H I J K L M N O P Q R S T U V W X Y Z

Nirvana - Do Re Mi tab

Song: Do Re Mi [Solo Acoustic]
Album: With the Lights Out
Artist: Nirvana

tabbed by Mequalspi
contact me with questions/comments at mequalspi(at)gmail.com


NOTE: tune down 1 whole step


D|----------------|----------------|----------------|----------------|----------------|
A|10---X1010101010|----------------|-7-7-X-7-7-7-7-7|----------------|----------------|
F|10---X1010101010|----------------|-7-7-X-7-7-7-7-7|----------------|----------------|
C|10---X1010101010|-7-7-X-7-7-7-7-7|-7-7-X-7-7-7-7-7|-5---X-5-5-5-5--|---5-5-5-5-5-5-5|
G|-8---X-8-8-8-8-8|-7-7-X-7-7-7-7-7|-5-5-X-5-5-5-5-5|-5---X-5-5-5-5--|---5-5-5-5-5-5-5|
D|----------------|-5-5-X-5-5-5-5-5|----------------|-3---X-3-3-3-3--|---3-3-3-3-3-3-3|

verse:

  REPEAT 3 TIMES
D|----------------|----------------|----------------|----------------|
A|10---X1010101010|----------------|-7---X-7-7-7-7-7|----------------|
F|10---X1010101010|----------------|-7---X-7-7-7-7-7|----------------|
C|10---X1010101010|-7---X-7-7-7-7-7|-7---X-7-7-7-7-7|-5---X-5-5-5-5-5|
G|-8---X-8-8-8-8-8|-7---X-7-7-7-7-7|-5---X-5-5-5-5-5|-5---X-5-5-5-5-5|
D|----------------|-5---X-5-5-5-5-5|----------------|-3---X-3-3-3-3-3|
  END REPEAT

  REPEAT 3 TIMES
D|----------------|----------------|
A|----------------|----------------|
F|-5---X-5-5---X-5|-5---X-5-3-3-7-6|
C|-5---X-5-5---X-5|-5---X-5-3-3-7-6|
G|-3---X-3-3---X-3|-3---X-3-1-1-5-4|
D|----------------|----------------|
  END REPEAT

D|----------------|----------------|----------------|----------------|
A|----------------|----------------|----------------|----------------|
F|----------------|----------------|----------------|-8-8-8-8-8-8-8-8|
C|-5---X-5-5---X-5|-5---X-5-5-5-5-5|-3--------------|-8-8-8-8-8-8-8-8|
G|-5---X-5-5---X-5|-5---X-5-5-5-5-5|-3--------------|-6-6-6-6-6-6-6-6|
D|-3---X-3-3---X-3|-3---X-3-3-3-3-3|-1--------------|----------------|

chorus:

D|----------------|----------------|----------------|----------------|
A|----------------|----------------|----------------|----------------|
F|----------------|10---X1010101010|----------------|10---X1010101010|
C|-7---X-7-7-7-7-7|10---X1010101010|-7---X-7-7-7-7-7|10---X1010101010|
G|-7---X-7-7-7-7-7|-8---X-8-8-8-8-8|-7---X-7-7-7-7-7|-8---X-8-8-8-8-8|
D|-5---X-5-5-5-5-5|----------------|-5---X-5-5-5-5-5|----------------|

D|----------------|----------------|----------------|----------------|
A|----------------|----------------|----------------|----------------|
F|----------------|10---X1010101010|----------------|10--------------|
C|-7---X-7-7-7-7-7|10---X1010101010|-7---X-7-7-7-7-7|10--------------|
G|-7---X-7-7-7-7-7|-8---X-8-8-8-8-8|-7---X-7-7-7-7-7|-8--------------|
D|-5---X-5-5-5-5-5|----------------|-5---X-5-5-5-5-5|----------------|

D|----------------|----------------|----------------|----------------|
A|----------------|----------------|----------------|----------------|
F|----------------|----------------|----------------|----------------|
C|-3-2-0----------|-3-2-0----------|-3-2-0----------|-3-2-0-3-3-3-3-3|
G|-------3-1-0----|-------3-1-0----|-------3-1-0----|-0-0-0-3-1-0-0-0|
D|-------------3-1|-------------3-1|-------------3-1|-------------3-1|

verse:

  REPEAT 3 TIMES
D|----------------|----------------|----------------|----------------|
A|10---X1010101010|----------------|----------------|----------------|
F|10---X1010101010|----------------|-7---X-7-7-7-7-7|----------------|
C|10---X1010101010|-7---X-7-7-7-7-7|-7---X-7-7-7-7-7|-5---X-5-5-5-5-5|
G|-8---X-8-8-8-8-8|-7---X-7-7-7-7-7|-5---X-5-5-5-5-5|-5---X-5-5-5-5-5|
D|----------------|-5---X-5-5-5-5-5|----------------|-3---X-3-3-3-3-3|
  END REPEAT

  REPEAT 3 TIMES
D|----------------|----------------|
A|----------------|----------------|
F|-5---X-5-5---X-5|-5---X-5-3-3-7-6|
C|-5---X-5-5---X-5|-5---X-5-3-3-7-6|
G|-3---X-3-3---X-3|-3---X-3-1-1-5-4|
D|----------------|----------------|
  END REPEAT

D|----------------|----------------|----------------|----------------|
A|----------------|----------------|----------------|----------------|
F|----------------|----------------|----------------|---8-8-8-8-8-8-8|
C|-5---X-5-5---X-5|-5---X-5-5-5-5-5|-3--------------|---8-8-8-8-8-8-8|
G|-5---X-5-5---X-5|-5---X-5-5-5-5-5|-3--------------|---6-6-6-6-6-6-6|
D|-3---X-3-3---X-3|-3---X-3-3-3-3-3|-1--------------|----------------|

chorus:

  REPEAT 2 TIMES
D|----------------|----------------|----------------|----------------|
A|----------------|----------------|----------------|----------------|
F|----------------|10---X1010101010|----------------|10---X1010101010|
C|-7---X-7-7-7-7-7|10---X1010101010|-7---X-7-7-7-7-7|10---X1010101010|
G|-7---X-7-7-7-7-7|-8---X-8-8-8-8-8|-7---X-7-7-7-7-7|-8---X-8-8-8-8-8|
D|-5---X-5-5-5-5-5|----------------|-5---X-5-5-5-5-5|----------------|
  END REPEAT

D|----------------|----------------|----------------|----------------|
A|----------------|----------------|----------------|----------------|
F|----------------|10---X1010101010|----------------|10--------------|
C|-7---X-7-7-7-7-7|10---X1010101010|-7---X-7-7-7-7-7|10--------------|
G|-7---X-7-7-7-7-7|-8---X-8-8-8-8-8|-7---X-7-7-7-7-7|-8--------------|
D|-5---X-5-5-5-5-5|----------------|-5---X-5-5-5-5-5|----------------|

D|----------------|----------------|----------------|----------------|
A|----------------|----------------|----------------|----------------|
F|----------------|----------------|----------------|----------------|
C|-3-2-0----------|-3-2-0----------|-3-2-0----------|-3-2-0-3-3-3-3-3|
G|-------3-1-0----|-------3-1-0----|-------3-1-0----|-0-0-0-3-1-0-0-0|
D|-------------3-1|-------------3-1|-------------3-1|-------------3-1|

D|----------------|----------------|----------------|----------------|
A|----------------|----------------|----------------|----------------|
F|----------------|----------------|----------------|----------------|
C|-3-2-0-3-3-3-3-3|-3-2-0-3-3-3-3-3|-3-2-0-3-3-3-3-3|-3-2-0-3-3-3-3-3|
G|-0-0-0-3-1-0-0-0|-0-0-0-3-1-0-0-0|-0-0-0-3-1-0-0-0|-0-0-0-3-1-0-0-0|
D|-------------3-1|-------------3-1|-------------3-1|-------------3-1|

verse:

  REPEAT 4 TIMES
D|----------------|----------------|----------------|----------------|
A|10---X1010101010|----------------|----------------|----------------|
F|10---X1010101010|----------------|-7---X-7-7-7-7-7|----------------|
C|10---X1010101010|-7---X-7-7-7-7-7|-7---X-7-7-7-7-7|-5---X-5-5-5-5-5|
G|-8---X-8-8-8-8-8|-7---X-7-7-7-7-7|-5---X-5-5-5-5-5|-5---X-5-5-5-5-5|
D|----------------|-5---X-5-5-5-5-5|----------------|-3---X-3-3-3-3-3|
  END REPEAT

D|----------------|----------------|
A|----------------|----------------|
F|-5---X-5-5---X-5|-5---X-5-3-3-7-6|
C|-5---X-5-5---X-5|-5---X-5-3-3-7-6|
G|-3---X-3-3---X-3|-3---X-3-1-1-5-4|
D|----------------|----------------|

  REPEAT 2 TIMES
D|----------------|----------------|
A|----------------|----------------|
F|-5---X-5-5---X-5|-5---X-5-3-3-7-8|
C|-5---X-5-5---X-5|-5---X-5-3-3-7-8|
G|-3---X-3-3---X-3|-3---X-3-1-1-5-6|
D|----------------|----------------|
  END REPEAT

D|----------------|----------------|----------------|----------------|
A|----------------|----------------|----------------|----------------|
F|----------------|----------------|----------------|---8-8-8-8-8-8-8|
C|-5---X-5-5---X-5|-5---X-5-5-5-5-5|-3--------------|---8-8-8-8-8-8-8|
G|-5---X-5-5---X-5|-5---X-5-5-5-5-5|-3--------------|---6-6-6-6-6-6-6|
D|-3---X-3-3---X-3|-3---X-3-3-3-3-3|-1--------------|----------------|

chorus:

  REPEAT 3 TIMES
D|----------------|----------------|----------------|----------------|
A|----------------|----------------|----------------|----------------|
F|----------------|10---X1010101010|----------------|10---X1010101010|
C|-7---X-7-7-7-7-7|10---X1010101010|-7---X-7-7-7-7-7|10---X1010101010|
G|-7---X-7-7-7-7-7|-8---X-8-8-8-8-8|-7---X-7-7-7-7-7|-8---X-8-8-8-8-8|
D|-5---X-5-5-5-5-5|----------------|-5---X-5-5-5-5-5|----------------|
  END REPEAT

D|----------------|----------------|----------------|----------------|
A|----------------|----------------|----------------|----------------|
F|----------------|10---X1010101010|----------------|10---X10--------|
C|-7---X-7-7-7-7-7|10---X1010101010|-7---X-7-7-7-7-7|10---X10--------|
G|-7---X-7-7-7-7-7|-8---X-8-8-8-8-8|-7---X-7-7-7-7-7|-8---X-8--------|
D|-5---X-5-5-5-5-5|----------------|-5---X-5-5-5-5-5|----------------|

D|----------------|----------------|----------------|----------------|----------------|
A|----------------|----------------|----------------|----------------|----------------|
F|----------------|----------------|----------------|----------------|-2-------2------|
C|-3-2-0----------|-3-2-0----------|-3-2-0----------|-3-2-0----------|-3-------3------|
G|-------3-1-0----|-------3-1-0----|-------3-1-0----|-------3-1-0----|-3--------------|
D|-------------3-1|-------------3-1|-------------3-1|-------------3-1|-1--------------|
Tap to rate this tab
 
# A B C D E F G H I J K L M N O P Q R S T U V W X Y Z