Song name
# A B C D E F G H I J K L M N O P Q R S T U V W X Y Z

Nirvana - Smell Like Teen Spirit tab

-------------------------------------------------------------------------------
			     Smells like teen spirit - Nirvana
-------------------------------------------------------------------------------
Tabbed by: I got the boot 
Email:mstroemer@yahoo.com

First tab Iíve done.

Tuning:DADGBE
INTRO X4
E|---------------------------------------------------------------------------|
B|---------------------------------------------------------------------------|
G|---------------------------------------------------------------------------|
D|-3-33--xxx-88866-6-xxx-11-11-11--------------------------------------------|
A|-3-33--xxx-88866-6-xxx-11-11-11--------------------------------------------|
D|-3-33--xxx-88866-6-xxx-11-11-11--------------------------------------------|

VERSE Load up on guns...
E|-1~~~~~~~-1~~~~~~~-1~~~~~~~-1~~~~~~~---------------------------------------|
B|1~~~~~~~~1~~~~~~~~1~~~~~~~~1~~~~~~~~---------------------------------------|
G|---------------------------------------------------------------------------|
D|---------------------------------------------------------------------------|
A|---------------------------------------------------------------------------|
D|---------------------------------------------------------------------------|

PRE CHORUS 
E|-1~~1~~1~~1~~1~~1~~1~1~1~1~~1~~1~~1~~1~1~1~1~1-1~--------------------------|
B|1~11~11~11~11~11~11~1-1-1-11~11~11~11~11~-1~1~1----------------------------|
G|---------------------------------------------------------------------------|
D|---------------------------------------------------------------------------|
A|---------------------------------------------------------------------------|
D|---------------------------------------------------------------------------|

CHORUS X8 
E|---------------------------------------------------------------------------|
B|---------------------------------------------------------------------------|
G|---------------------------------------------------------------------------|
D|-3-33--xxx-88866-6-xxx-11-11-11--------------------------------------------|
A|-3-33--xxx-88866-6-xxx-11-11-11--------------------------------------------|
D|-3-33--xxx-88866-6-xxx-11-11-11--------------------------------------------|

POST CHORUS X2
E|---------------------------------------------------------------------------|
B|---------------------------------------------------------------------------|
G|---------------------------------------------------------------------------|
D|3333333h4~~33333339p8------------------------------------------------------|
A|3333333h4~~33333339p8------------------------------------------------------|
D|3333333h4~~33333339p8------------------------------------------------------|

VERSE Iím worse at what I do best...
E|-1~~~~~~~-1~~~~~~~-1~~~~~~~-1~~~~~~~---------------------------------------|
B|1~~~~~~~~1~~~~~~~~1~~~~~~~~1~~~~~~~~---------------------------------------|
G|---------------------------------------------------------------------------|
D|---------------------------------------------------------------------------|
A|---------------------------------------------------------------------------|
D|---------------------------------------------------------------------------|

PRE CHORUS 
E|-1~~1~~1~~1~~1~~1~~1~1~1~1~~1~~1~~1~~1~1~1~1~1-1~--------------------------|
B|1~11~11~11~11~11~11~1-1-1-11~11~11~11~11~-1~1~1----------------------------|
G|---------------------------------------------------------------------------|
D|---------------------------------------------------------------------------|
A|---------------------------------------------------------------------------|
D|---------------------------------------------------------------------------|

CHORUS X8 
E|---------------------------------------------------------------------------|
B|---------------------------------------------------------------------------|
G|---------------------------------------------------------------------------|
D|-3-33--xxx-88866-6-xxx-11-11-11--------------------------------------------|
A|-3-33--xxx-88866-6-xxx-11-11-11--------------------------------------------|
D|-3-33--xxx-88866-6-xxx-11-11-11--------------------------------------------|

POST CHORUS X2
E|---------------------------------------------------------------------------|
B|---------------------------------------------------------------------------|
G|---------------------------------------------------------------------------|
D|3333333h4~~33333339p8------------------------------------------------------|
A|3333333h4~~33333339p8------------------------------------------------------|
D|3333333h4~~33333339p8------------------------------------------------------|

GUITAR SOLO
E|---------------------------------------------------------------------------|
B|---------------------------------------------------------------------------|
G|--8h10~---88b~6p5~6p5---------------8h10~---88b~6p5~6p5--------------------|
D|10-----6~~-----------86~~8b~~6p5~~10-----6~~-----------86~~8b~~6p5~~6~5~6~5|
A|---------------------------------------------------------------------------|
D|---------------------------------------------------------------------------|

E|---------------------------------------------------------------------------|
B|---------------------------------------------------------------------------|
G|---------------------------------------------------------------------------|
D|~6~5~65656---6~5~6~5~6~5~65656---6~5~6~5~6~5~65656---6~5~6~5~6~5~65656-----|
A|----------8~~-----------------8~~-----------------8~~-----------------8~~~~|
D|---------------------------------------------------------------------------|

HOLD THE NOTE ALL THE WAY THROUGH THE VERSE THEN

PRE CHORUS 
E|-1~~1~~1~~1~~1~~1~~1~1~1~1~~1~~1~~1~~1~1~1~1~1-1~--------------------------|
B|1~11~11~11~11~11~11~1-1-1-11~11~11~11~11~-1~1~1----------------------------|
G|---------------------------------------------------------------------------|
D|---------------------------------------------------------------------------|
A|---------------------------------------------------------------------------|
D|---------------------------------------------------------------------------|

CHORUS X8 
E|---------------------------------------------------------------------------|
B|---------------------------------------------------------------------------|
G|---------------------------------------------------------------------------|
D|-3-33--xxx-88866-6-xxx-11-11-11--------------------------------------------|
A|-3-33--xxx-88866-6-xxx-11-11-11--------------------------------------------|
D|-3-33--xxx-88866-6-xxx-11-11-11--------------------------------------------|

OUTRO X9
E|---------------------------------------------------------------------------|
B|---------------------------------------------------------------------------|
G|---------------------------------------------------------------------------|
D|-3-33--xxx-88866-6-xxx-11-11-11--------------------------------------------|
A|-3-33--xxx-88866-6-xxx-11-11-11--------------------------------------------|
D|-3-33--xxx-88866-6-xxx-11-11-11--------------------------------------------|


************************************

| /   slide up
| \   slide down
| h   hammer-on
| p   pull-off
| ~   vibrato
| +   harmonic
| x   Mute note
| b   Bend
| pb  Pre-bend
| br  Bend release
| pbr Pre-bend release
| brb Bend release bend
  X   Choked
************************************
Tap to rate this tab
# A B C D E F G H I J K L M N O P Q R S T U V W X Y Z