Song name
# A B C D E F G H I J K L M N O P Q R S T U V W X Y Z

Nirvana - Breed tab

R.I.P Kurt Cobain, the last true rock star.

First tab!

Email me at: randomsmasher@gmail.com

I'm almost positive this is correct, there isn't really one this right so far...

Tuning: Standard (E A D G B e)

Heavy Distortion

      Riff/Intro
e|-------------------------|
B|-------------------------|
G|-------------2/3---------|
D|----4-4---4--2/3--2------| x16
A|----4-4---4-------2------|
E|-------------------------|

      Bridge
e|--------------------------------------------------------|
B|--------------------------------------------------------|
G|----11-11-11-11-11-11-11-11-11-11-11-11-11-11----9^-----|
D|----11-11-11-11-11-11-11-11-11-11-11-11-11-11-----------| x4
A|--------------------------------------------------------|
E|--------------------------------------------------------|

     Chorus
e|------------------------|
B|------------------------|
G|-7-7--------5-5-4-4-----|
D|-7-7--7-7---5-5-4-4-----| x4
A|-5-5--7-7---3-3-2-2-----|
E|------5-5---------------|

                   SOLO

e|---------------------------------------------------------|
B|---------------------------------------------------------|
G|--11--11-11-11-11-11-11-11-11-11-11-11-11-11/10/9/8/7/6--|
D|--11--11-11-11-11-11-11-11-11-11-11-11-11-11/10/9/8/7/6--|
A|---------------------------------------------------------|
E|---------------------------------------------------------|

e|---------------------------------------------------------|
B|---------------------------------------------------------|
G|--14--14-14-14-14-14-14-14-14-14-14-14-14-14/13/12/11/10-|
D|--14--14-14-14-14-14-14-14-14-14-14-14-14-14/13/12/11/10-|
A|---------------------------------------------------------|
E|---------------------------------------------------------|

e|---------------------------------------------------------|
B|---------------------------------------------------------|
G|--17--17-17-17-17-17-17-17-17-17-17-17-17-17/16/15/14/13-|
D|--17--17-17-17-17-17-17-17-17-17-17-17-17-17/16/15/14/13-|
A|---------------------------------------------------------|
E|---------------------------------------------------------|

e|---------------------------------------------------------|
B|---------------------------------------------------------|
G|--21--21-21-21-21-21-21-21-21-21-21-21-22-22-22-22-22-22-|
D|--21--21-21-21-21-21-21-21-21-21-21-21-22-22-22-22-22-22-|
A|---------------------------------------------------------|
E|---------------------------------------------------------|

Ordering:
Riff/Intro
Bridge
Chorus
Riff
Bridge
Chorus
Solo
Chorus
Riff

That's pretty much how it's played!

Happy Headbanging!
Tap to rate this tab
# A B C D E F G H I J K L M N O P Q R S T U V W X Y Z