Song name
# A B C D E F G H I J K L M N O P Q R S T U V W X Y Z

Nirvana - Asshole tab

drop d

intro
--------------------------------------------------------|
--------------------------------------------------------|
--------------------------------------------------------|
--------------------------------------------------------|
--------5-5------------5-5------------------------------|
----6-6-----6-6-0--6-6-----6-6-0------------------------|

--------------------------------------------------------|
--------------------------------------------------------|
---------7-7--------------7-7---------------------------|
----6-6--7-7--6-6----6-6--7-7-6-6-----------------------|
----6-6--5-5--6-6----6-6--5-5-6-6-----------------------|
----6-6-------6-6-0--6-6------6-6-0---------------------|

verse
--------------------------------------------------------|
--------------------------------------------------------|
---------7----------------------------------------------|
----6-6--7----------------------------------------------|
----6-6--5----------------------------------------------|
----6-6-------------------------------------------------|

chorus
--------------------------------------------------------|
--------------------------------------------------------|
-------------------------------7-7-----------7-7--------|
--2-2-2-2-2---1-1-1-0-0-0--6-6-7-7-6-6---6-6-7-7-6-6----|
--2-2-2-2-2-0-1-1-1-0-0-0--6-6-5-5-6-6---6-6-5-5-6-6----|
--2-2-2-2-2-0-1-1-1-0-0-0--6-6-----6-6-0-6-6-----6-6-0--|

--------------------------------------------------------|
--------------------------------------------------------|
-----------------5-5-5-5-5---4-4-4-4-4-4-4-4-4-4-4------|
--2-2-2-2---x//x-5-5-5-5-5-x-4-4-4-4-4-4-4-4-4-4-4------|
--2-2-2-2---x//x-3-3-3-3-3-o-2-2-2-2-2-2-2-2-2-2-2-0----|
--2-2-2-2------------------------------------------0----|

---------------------------------------------------------|
---------------------------------------------------------|
---------------------------------------------------------|
--2-2-2-2-2---1-1-1-0-0-0--------------------------------|
--2-2-2-2-2-0-1-1-1-0-0-0--0--------------0--------------|
--2-2-2-2-2-0-1-1-1-0-0-0--0-0-5b-0-5b-5b-0-0-5b-0-5b-5--|b

outro                           x2
--------------------------------/------------------------------|
--------------------------------/------------------------------|
------3-3------------3-3--------/------3-----------------------|
--2-2-3-3-2-2----2-2-3-3-2-2----/--2-2-3-----------------------|
--2-2-1-1-2-2-0--2-2-1-1-2-2-0--/--2-2-1-----------------------|
--2-2-----2-2-0--2-2-----2-2-0--/--2-2-------------------------|
Tap to rate this tab
# A B C D E F G H I J K L M N O P Q R S T U V W X Y Z