Song name
# A B C D E F G H I J K L M N O P Q R S T U V W X Y Z

Nirvana - Negative Creep tab

                                  NIRVANA
                               Negative Creep
                                   *1989*
tuning:drop d

*feedback in beginning*
  P.M      .......      ...      .....
e|------------------------------------------------|
B|------------------------------------------------|
G|------------------------------------------------|x4
D|0-0-3/12-0-0-0-0-12/3-0-0-3/12-0-0-0-12/3-------|
A|0-0-3/12-0-0-0-0-12/3-0-0-3/12-0-0-0-12/3-------|
D|0-0-3/12-0-0-0-0-12/3-0-0-3/12-0-0-0-12/3-------|
  P.M      .......
e|----------------------|  |------|
B|----------------------|  |------|
G|----------------------|x3|------|
D|0-0-3/12-0-0-0-0-12/3-|  |------|
A|0-0-3/12-0-0-0-0-12/3-|  |------|
D|0-0-3/12-0-0-0-0-12/3-|  |-6b8~-|
  P.M      .......
e|----------------------|  |--------|
B|----------------------|  |--------|
G|----------------------|x3|--------|
D|0-0-3/12-0-0-0-0-12/3-|  |--------|
A|0-0-3/12-0-0-0-0-12/3-|  |--------|
D|0-0-3/12-0-0-0-0-12/3-|  |-19b22~-|
  P.M      .......
e|----------------------|  |------|
B|----------------------|  |------|
G|----------------------|x3|------|
D|0-0-3/12-0-0-0-0-12/3-|  |------|
A|0-0-3/12-0-0-0-0-12/3-|  |------|
D|0-0-3/12-0-0-0-0-12/3-|  |-4b7~-|
  P.M      .......
e|----------------------|  |----------------------|
B|----------------------|  |----------------------|
G|----------------------|x3|----------------------|
D|0-0-3/12-0-0-0-0-12/3-|  |-0-0-0-0-0-0-0-0-0-0-0|
A|0-0-3/12-0-0-0-0-12/3-|  |-0-0-0-0-0-0-0-0-0-0-0|
D|0-0-3/12-0-0-0-0-12/3-|  |-0-0-0-0-0-0-0-0-0-0-0|

E----------------------------------|
B----------------------------------|
G----------------------------------|x8
D-6-6-6--5-5--5-5-4-4-4------------|
A-4-4-4--3-3--3-3-4-4-4--3-6-6-3-0-|
D-----------------4-4-4------------|
  P.M      .......
e|----------------------|  |------|
B|----------------------|  |------|
G|----------------------|x3|------|
D|0-0-3/12-0-0-0-0-12/3-|  |------|
A|0-0-3/12-0-0-0-0-12/3-|  |------|
D|0-0-3/12-0-0-0-0-12/3-|  |-6b8~-|
  P.M      .......
e|----------------------|  |--------|
B|----------------------|  |--------|
G|----------------------|x3|--------|
D|0-0-3/12-0-0-0-0-12/3-|  |--------|
A|0-0-3/12-0-0-0-0-12/3-|  |--------|
D|0-0-3/12-0-0-0-0-12/3-|  |-19b22~-|
  P.M      .......
e|----------------------|  |------|
B|----------------------|  |------|
G|----------------------|x3|------|
D|0-0-3/12-0-0-0-0-12/3-|  |------|
A|0-0-3/12-0-0-0-0-12/3-|  |------|
D|0-0-3/12-0-0-0-0-12/3-|  |-3b6~-|
  P.M      .......
e|----------------------|  |----------------------|
B|----------------------|  |----------------------|
G|----------------------|x3|----------------------|
D|0-0-3/12-0-0-0-0-12/3-|  |-0-0-0-0-0-0-0-0-0-0-0|
A|0-0-3/12-0-0-0-0-12/3-|  |-0-0-0-0-0-0-0-0-0-0-0|
D|0-0-3/12-0-0-0-0-12/3-|  |-0-0-0-0-0-0-0-0-0-0-0|

E----------------------------------|
B----------------------------------|
G----------------------------------|x8
D-6-6-6--5-5--5-5-4-4-4------------|
A-4-4-4--3-3--3-3-4-4-4--3-6-6-3-0-|
D-----------------4-4-4------------|
  P.M      .......
e|----------------------|  |------|
B|----------------------|  |------|
G|----------------------|x3|------|
D|0-0-3/12-0-0-0-0-12/3-|  |------|
A|0-0-3/12-0-0-0-0-12/3-|  |------|
D|0-0-3/12-0-0-0-0-12/3-|  |-6b8~-|
  P.M      .......
e|----------------------|  |--------|
B|----------------------|  |--------|
G|----------------------|x3|--------|
D|0-0-3/12-0-0-0-0-12/3-|  |--------|
A|0-0-3/12-0-0-0-0-12/3-|  |--------|
D|0-0-3/12-0-0-0-0-12/3-|  |-19b22~-|
  P.M      .......
e|----------------------|  |------|
B|----------------------|  |------|
G|----------------------|x3|------|
D|0-0-3/12-0-0-0-0-12/3-|  |------|
A|0-0-3/12-0-0-0-0-12/3-|  |------|
D|0-0-3/12-0-0-0-0-12/3-|  |-3b6~-|
  P.M      .......
e|----------------------|  |----------------------|
B|----------------------|  |----------------------|
G|----------------------|x3|----------------------|
D|0-0-3/12-0-0-0-0-12/3-|  |-0-0-0-0-0-0-0-0-0-0-0|
A|0-0-3/12-0-0-0-0-12/3-|  |-0-0-0-0-0-0-0-0-0-0-0|
D|0-0-3/12-0-0-0-0-12/3-|  |-0-0-0-0-0-0-0-0-0-0-0|

E----------------------------------|
B----------------------------------|
G----------------------------------|x17
D-6-6-6--5-5--5-5-4-4-4------------|
A-4-4-4--3-3--3-3-4-4-4--3-6-6-3-0-|
D-----------------4-4-4------------|


************************************

| /   slide up
| \   slide down
| h   hammer-on
| ~   vibrato
| b   Bend

Tap to rate this tab
# A B C D E F G H I J K L M N O P Q R S T U V W X Y Z