Song name
# A B C D E F G H I J K L M N O P Q R S T U V W X Y Z

Nirvana - Sappy Acoustic tab

Intro:
e|------------------------------------------------------------------|
B|------------------------------------------------------------------|
G|-----4-----4---4-----0--------------------------------0-------2---|x2
D|---4-----4---4-----0---0-----2--------4-----4---4---0-------2-----|
A|-2-----2-------------------2--------4-----4---4-----------0-----0-|
E|-----------------3-------0-----3--2-----2---------3-----3---------|

Verse 1:
e|------------------------------------------------------------------|
B|------------------------------------------------------------------|
G|-----4-----4---4-----0--------------------------------0-------2---|x4
D|---4-----4---4-----0---0-----2--------4-----4---4---0-------2-----|
A|-2-----2-------------------2--------4-----4---4-----------0-----0-|
E|-----------------3-------0-----3--2-----2---------3-----3---------|

Chorus 1:                                         x3
e|-----------------|--------------------------------|--------------------|
B|-----------------|--------------------------------|--------------------|
G|-----4-----4---4-|----0-----0---0-----------------|----0-----0---0-----|
D|---4-----4---4---|--0-----0---0-------2-----2---2-|--0-----0---0---4~~~|
A|-2-----2---------|------------------2-----2---2---|----------------4~~~|
E|-----------------|3-----3---------0-----0---------|3-----3---------2~~~|

e|--------------------------------------------------------------------------|
B|--------------------------------------------------------------------------|
G|-----4-----4---4-----0--------------------------------0-------2-----------|
D|---4-----4---4-----0---0-----2--------4-----4---4---0---0---2------4~~----|
A|-2-----2-------------------2--------4-----4---4-----------0-----0--4~~----|
E|-----------------3-------0-----3--2-----2---------3----------------2~~----|

Verse 2:
e|------------------------------------------------------------------|
B|------------------------------------------------------------------|
G|-----4-----4---4-----0--------------------------------0-------2---|x4
D|---4-----4---4-----0---0-----2--------4-----4---4---0-------2-----|
A|-2-----2-------------------2--------4-----4---4-----------0-----0-|
E|-----------------3-------0-----3--2-----2---------3-----3---------|

Chorus 2:
e|------------------------------------------------------------------|
B|------------------------------------------------------------------|
G|-----4-----4---4-----0--------------------------------0-------2---|
D|---4-----4---4-----0---0-----2--------4-----4---4---0-------2-----|
A|-2-----2-------------------2--------4-----4---4-----------0-----0-|
E|-----------------3-------0-----3--2-----2---------3-----3---------|

Chorus 2:                                         x4
e|-----------------|--------------------------------|----------------2~~~|
B|-----------------|--------------------------------|----------------2~~~|
G|-----4-----4---4-|----0-----0---0-----------------|----0-----0---0-3~~~|
D|---4-----4---4---|--0-----0---0-------2-----2---2-|--0-----0---0---4~~~|
A|-2-----2---------|------------------2-----2---2---|----------------4~~~|
E|-----------------|3-----3---------0-----0---------|3-----3---------2~~~|

*Lyrics*
And if you say your prayers
You will make God happy
And if you do what's true\told
You will make me happy
I'll keep you in a jar
And you will seem happy
I'll give you breathing holes
You will think you're happy, now

You're in a laundry room
You're in a laundry room
You're in a laundry room

And if you save yourself
You will make him happy
He'll bring you fine rewards
Then you will feel happy
I'll keep you in my room
I'm sure you'll be happy
And if you save your soul
You will think you're happy, now

You're in a laundry room
You're in a laundry room
You're in a laundry room
You're in a laundry room
Tap to rate this tab
 
# A B C D E F G H I J K L M N O P Q R S T U V W X Y Z