Song name
# A B C D E F G H I J K L M N O P Q R S T U V W X Y Z

Nirvana - Beans tab

E:------------------------------------------------------------
B:------------------------------------------------------------
G:1-1-----1-1-----1-1-----1-1-----1-1-----1-1-----1-1-----1-1-
D:----1-1-----1-1-----1-1-----1-1-----1-1-----1-1-----1-1-----
A:------------------------------------------------------------
E:------------------------------------------------------------

E:------------------------------------------------------------
B:------------------------------------------------------------
G:1-1-----1-1-----1-1-----1-1-----1-1-----1-1-----1-1-----1-1-
D:----1-1-----1-1-----1-1-----1-1-----1-1-----1-1-----1-1-----
A:------------------------------------------------------------
E:------------------------------------------------------------
THIS SONG WAS LEFT OF THE BLEACH LP AS SUB POP THOUGHT THEY WERE RETARDED
Tap to rate this tab
# A B C D E F G H I J K L M N O P Q R S T U V W X Y Z