Song name
# A B C D E F G H I J K L M N O P Q R S T U V W X Y Z

Nirvana - Suicide Samurai tab

Suicide samurai (annorexorsist)

Drop D tuning

                  8X           Verse 1
E---------------------------------------------------------------------------|
B---------------------------------------------------------------------------|
G---------------------------------------------------------------------------|
D--3--2--0--3--2--0--3--2--0--3--2--1--0------------------------------------|
A--3--2--0--3--2--0--3--2--0--3--2--1--0------------------------------------|
e--3--2--0--3--2--0--3--2--0--3--2--1--0------------------------------------|

                  Verse 2
E--0--0--0--0--0--0--0--0--0--0---------------------------------------------|
B--0--0--0--0--0--0--0--0--0--0---------------------------------------------|
G--4--4--4--4--4--4--4--4--4--4---------------------------------------------|
D---------------------------------------------------------------------------|
A---------------------------------------------------------------------------|
e---------------------------------------------------------------------------|

                     chourus           4X
E----------------------------------------------------------------------------|
B----------------------------------------------------------------------------|
G-----------4--4--4--4-----------4--4--4--2--2--2----------------------------|
D--0--0--0--4--4--4--4-----------4--4--4--2--2--2--3--2--0-------------------|
A--0--0--0--2--2--2--2-----------2--2--2--0--0--0--3--2--0-------------------|
e--0--0--0--------------2--4--0--------------------3--2--0-------------------|


thats it if you need any more nirvana tabs just send me an e-mail at skaz@comcast.net 
tell me what song you need and ill get it i also have all the regular nirvana tab books 
my name is zach
Tap to rate this tab
# A B C D E F G H I J K L M N O P Q R S T U V W X Y Z