Song name
# A B C D E F G H I J K L M N O P Q R S T U V W X Y Z

Nirvana - Cut Me Some Slack tab

cut me some slack      



paul mccartney & nirvana



#121212concert



TRANSCRIBED BY RUDY GUZMAN



guzman_84@hotmail.com




                                               
e:---------------------------------|
B:---------------------------------|
G:-7---------5--7--10--7--5--7-----|
D:-7---------5--7--10--7--5--7---0-|
A:-5---------3--5--8---5--3--5---0-|
E:-----3h5-------------------------|

e:--------------------------|
B:--------------------------|
G:-7--5--7--10--7--5--7-----|
D:-7--5--7--10--7--5--7---0-|
A:-5--3--5--8---5--3--5---0-|
E:--------------------------|

e:-----------------------------------------------------------------------------------|
B:-----------------------------------------------------------------------------------|
G:-7--5/7-7-7------------------------------------------------------------------------|
D:-7--5/7-7-7-0--12--12-12--12-12-12-12-12-12-12--0--12--12-12--12-12-12-12-12-12-12-|
A:-5--3/5-5-5-0--12--12-12--12-12-12-12-12-12-12--0--12--12-12--12-12-12-12-12-12-12-|
E:---------------10--10-10--10-10-10-10-10-10-10--10-10--10-10--10-10-10-10-10-10-10-|

  dear mother                                                 set me free
e:------------------------------------------------------------------------------------|
B:----------------------------------------10----10----10------------------------------|
G:----------------------------------------10----10----10------------------------------|
D:-0--12--12-12--12-12-12-12-12-12-12--12----12----12------12----------12----12----12-|
A:-0--12--12-12--12-12-12-12-12-12-12----------------------12----------12----12----12-|
E:-10-10--10-10--10-10-10-10-10-10-10----------------------10-------10----10----10-10-|

e:-------------------------------|
B:----------------10----10----10-|
G:----------------10----10----10-|
D:---------10/12-----12----12----|
A:------8------------------------|
E:-8h10--------------------------|

  and mother                                                  let me be
e:------------------------------------------------------------------------------------|
B:-----------------------------------------7-5h7p5-------5b---------------------------|
G:-----------------------------------------7-5h7p5-------5b---------------------------|
D:-0--12--12-12--12-12-12-12-12-12-12--0-----------7p5-----------------12----12----12-|
A:-0--12--12-12--12-12-12-12-12-12-12--0---------------7---------------12----12----12-|
E:-10-10--10-10--10-10-10-10-10-10-10--10---------------------------10----10----10-10-|

e:-------------------------------------|
B:-------------------------------------|
G:-------------------------------------|
D:-------------12----12----12--x-x-x-x-|
A:-7h9p7-------12----12----12--x-x-x-x-|
E:---------10----10----10--10--x-x-x-x-|

   mother                                                    watch me run
e:------------------------------------------------------------------------------------|
B:----------------------------------------10----10----10------------------------------|
G:----------------------------------------10----10----10------------------------------|
D:-0--12--12-12--12-12-12-12-12-12-12--12----12----12------12----------12----12----12-|
A:-0--12--12-12--12-12-12-12-12-12-12----------------------12----------12----12----12-|
E:-10-10--10-10--10-10-10-10-10-10-10----------------------10-------10----10----10-10-|

e:---------------------------------|
B:---------------------------------|
G:---------------------------------|
D:-12--12-12--12-12-12-12-12-12-12-|
A:-12--12-12--12-12-12-12-12-12-12-|
E:-10--10-10--10-10-10-10-10-10-10-|

   hey mother...                               i'm going to have some fun yeah
e:------------------------------------------------------------------------|
B:------------------------------------------------------------------------|
G:------------------------------------------------------------------------|
D:-0--12--12-12--12-12-12-12-12-12-12--0--12--12-12--12-12-12-12-12-12-12-|
A:-0--12--12-12--12-12-12-12-12-12-12--0--12--12-12--12-12-12-12-12-12-12-|
E:-10-10--10-10--10-10-10-10-10-10-10--10-10--10-10--10-10-10-10-10-10-10-|

e:------------------------------------|
B:------------------------------------|
G:------------------------------------|
D:-0--12--12-12--12-12-12-12-12-12-12-|
A:-0--12--12-12--12-12-12-12-12-12-12-|
E:-10-10--10-10--10-10-10-10-10-10-10-|


   kris bass line                       x2
e:----------------------------------------|
B:----------------------------------------|
G:----------------------------------------|
D:----------------------------------------|
A:-0-0-0-0-0--0-0-0-0-0--0-0-0-0--0-0-0-0-|
E:-2-2-2-2-2--3-3-3-3-3--5-3-5-5--5-3-5-5-|
   paul
e:------------------------------------------------------------------------------|
B:-15-15-15-15-15-15--13/15-15-15-15-15-15-15-13/15-15-15-15-15-15--13/15-15-15-|
G:-14-14-14-14-14-14--12/14-14-14-14-14-14-14-12/14-14-14-14-14-14--12/14-14-14-|
D:------------------------------------------------------------------------------|
A:------------------------------------------------------------------------------|
E:------------------------------------------------------------------------------|
   pat
e:-------------------------------------------|
B:-------------------------------------------|
G:-7-7-7-7-7-7-7-7-7-7-7-7-7-7-7-7-7-7-7-7-7-|
D:-7-7-7-7-7-7-7-7-7-7-7-7-7-7-7-7-7-7-7-7-7-|
A:-5-5-5-5-5-5-5-5-5-5-5-5-5-5-5-5-5-5-5-5-5-|
E:-------------------------------------------|

                           x2
e:------------------------------------|
B:------------------------------------|
G:------------------------------------|
D:-0--12--12-12--12-12-12-12-12-12-12-|
A:-0--12--12-12--12-12-12-12-12-12-12-|
E:-10-10--10-10--10-10-10-10-10-10-10-|

    hey mother...
e:------------------------------------------------------------------------|
B:------------------------------------------------------------------------|
G:------------------------------------------------------------------------|
D:-0--12--12-12--12-12-12-12-12-12-12--0--12--12-12--12-12-12-12-12-12-12-|
A:-0--12--12-12--12-12-12-12-12-12-12--0--12--12-12--12-12-12-12-12-12-12-|
E:-10-10--10-10--10-10-10-10-10-10-10--10-10--10-10--10-10-10-10-10-10-10-|

e:------------------------------------|
B:------------------------------------|
G:------------------------------------|
D:-0--12--12-12--12-12-12-12-12-12-12-|
A:-0--12--12-12--12-12-12-12-12-12-12-|
E:-10-10--10-10--10-10-10-10-10-10-10-|

e:------------------------------------------------------------------------|
B:------------------------------------------------------------------------|
G:------------------------------------------------------------------------|
D:-0--12--12-12--12-12-12-12-12-12-12--0--12--12-12--12-12-12-12-12-12-12-|
A:-0--12--12-12--12-12-12-12-12-12-12--0--12--12-12--12-12-12-12-12-12-12-|
E:-10-10--10-10--10-10-10-10-10-10-10--10-10--10-10--10-10-10-10-10-10-10-|

e:------------------------------------|
B:------------------------------------|
G:------------------------------------|
D:-0--12--12-12--12-12-12-12-12-12-12-|
A:-0--12--12-12--12-12-12-12-12-12-12-|
E:-10-10--10-10--10-10-10-10-10-10-10-|

           if you want to...
e:----------------------------------------------------------------|
B:----------------------------------------------------------------|
G:-2-2-2-2-2-2-2-2-2-2-2-2-2-2-2-2-2-2-2-2-2-2-2-2-2-2-2-2-2-2--7-|
D:-2-2-2-2-2-2-2-2-2-2-2-2-2-2-2-2-2-2-2-2-2-2-2-2-2-2-2-2-2-2--7-|
A:-0-0-0-0-0-0-0-0-0-0-0-0-0-0-0-0-0-0-0-0-0-0-0-0-0-0-0-0-0-0--5-|
E:----------------------------------------------------------------|

                          x2
e:--------------------------|
B:--------------------------|
G:-7--5--7--10--7--5--7-----|
D:-7--5--7--10--7--5--7---0-|
A:-5--3--5--8---5--3--5---0-|
E:--------------------------|

e:---------------------------------------------------------------|
B:---------------------------------------------------------------|
G:-7-7-7--7-7--7-7-7-7-7-7-7-7---7-7-7--7-7--7-7-7-7-7-7-7-7---7-|
D:-7-7-7--7-7--7-7-7-7-7-7-7-7---7-7-7--7-7--7-7-7-7-7-7-7-7---7-|
A:-5-5-5--5-5--5-5-5-5-5-5-5-5-0h5-5-5--5-5--5-5-5-5-5-5-5-5-0h5-|
E:---------------------------------------------------------------|

e:-----------------------------|
B:-----------------------------|
G:-7-7-7--7-7--7-7-7-7-7-7-7-7-|
D:-7-7-7--7-7--7-7-7-7-7-7-7-7-|
A:-5-5-5--5-5--5-5-5-5-5-5-5-5-|
E:-----------------------------|

   kris                                 x4
e:----------------------------------------|
B:----------------------------------------|
G:----------------------------------------|
D:----------------------------------------|
A:-0-0-0-0-0--0-0-0-0-0--0-0-0-0--0-0-0-0-|
E:-2-2-2-2-2--3-3-3-3-3--5-3-5-5--5-3-5-5-|
   paul
e:------------------------------------------------------------------------------|
B:-15-15-15-15-15-15--13/15-15-15-15-15-15-15-13/15-15-15-15-15-15--13/15-15-15-|
G:-14-14-14-14-14-14--12/14-14-14-14-14-14-14-12/14-14-14-14-14-14--12/14-14-14-|
D:------------------------------------------------------------------------------|
A:------------------------------------------------------------------------------|
E:------------------------------------------------------------------------------|
   pat
e:-------------------------------------------|
B:-------------------------------------------|
G:-7-7-7-7-7-7-7-7-7-7-7-7-7-7-7-7-7-7-7-7-7-|
D:-7-7-7-7-7-7-7-7-7-7-7-7-7-7-7-7-7-7-7-7-7-|
A:-5-5-5-5-5-5-5-5-5-5-5-5-5-5-5-5-5-5-5-5-5-|
E:-------------------------------------------|

                                                    x2
e:----------------------------------------------------|
B:----------------------------------------------------|
G:-7-7-7-7-7-7--8-8-8-8-8-8--9-9-9-9-9-9--8-8-8-8-8-8-|
D:-x-x-x-x-x-x--x-x-x-x-x-x--x-x-x-x-x-x--x-x-x-x-x-x-|
A:-5-5-5-5-5-5--6-6-6-6-6-6--7-7-7-7-7-7--6-6-6-6-6-6-|
E:----------------------------------------------------|

           if you want to...
e:----------------------------------------------------------------|
B:----------------------------------------------------------------|
G:-2-2-2-2-2-2-2-2-2-2-2-2-2-2-2-2-2-2-2-2-2-2-2-2-2-2-2-2-2-2--7-|
D:-2-2-2-2-2-2-2-2-2-2-2-2-2-2-2-2-2-2-2-2-2-2-2-2-2-2-2-2-2-2--7-|
A:-0-0-0-0-0-0-0-0-0-0-0-0-0-0-0-0-0-0-0-0-0-0-0-0-0-0-0-0-0-0--5-|
E:----------------------------------------------------------------|

                                                    x4
e:----------------------------------------------------|
B:----------------------------------------------------|
G:-7-7-7-7-7-7--8-8-8-8-8-8--9-9-9-9-9-9--8-8-8-8-8-8-|
D:-x-x-x-x-x-x--x-x-x-x-x-x--x-x-x-x-x-x--x-x-x-x-x-x-|
A:-5-5-5-5-5-5--6-6-6-6-6-6--7-7-7-7-7-7--6-6-6-6-6-6-|
E:----------------------------------------------------|

                                                                            x3
e:----------------------------------------------------------------------------|
B:----------------------------------------------------------------------------|
G:----------------------------------------------------------------------------|
D:-12-12-12-12-12-12--13-13-13-13-13-13--14-14-14-14-14-14--13-13-13-13-13-13-|
A:-x--x--x--x--x--x---x--x--x--x--x--x---x--x--x--x--x--x---x--x--x--x--x--x--|
E:-10-10-10-10-10-10--11-11-11-11-11-11--12-12-12-12-12-12--11-11-11-11-11-11-|

e:-------------------|
B:-------------------|
G:-------------------|
D:-------------------|
A:-------------------|
E:-12h14p12-10h12p12-|

                                                    x4
e:----------------------------------------------------|
B:----------------------------------------------------|
G:-7-7-7-7-7-7--8-8-8-8-8-8--9-9-9-9-9-9--8-8-8-8-8-8-|
D:-x-x-x-x-x-x--x-x-x-x-x-x--x-x-x-x-x-x--x-x-x-x-x-x-|
A:-5-5-5-5-5-5--6-6-6-6-6-6--7-7-7-7-7-7--6-6-6-6-6-6-|
E:----------------------------------------------------|

e:-19bf-----(19bf)\--------------|
B:-------------------------------|
G:-------------------------------|
D:-------------------------------|
A:-------------------------------|
E:-------------------------------|

e:------------------------------------------------------------|
B:------------------------------------------------------------|
G:-7----------------------------7-----------------------------|
D:-7----------------------------7-----------------------------|
A:-5----------------------------5-----------------------------|
E:------------------------------------------------------------|




hillo son mex

13/12/12
Tap to rate this tab
# A B C D E F G H I J K L M N O P Q R S T U V W X Y Z