Song name
# A B C D E F G H I J K L M N O P Q R S T U V W X Y Z

Nirvana - Cut Me Some Slack tab

cut me some slack      



paul mccartney & nirvana



#121212concert



TRANSCRIBED BY RUDY GUZMAN



guzman_84@hotmail.com




     D tuning
                                               
e:---------------------------------|
B:---------------------------------|
G:-7---------5--7--10--7--5--7-----|
D:-7---------5--7--10--7--5--7-----|
A:-5---------3--5--8---5--3--5---0-|
D:-----5h7-----------------------0-|

e:--------------------------|
B:--------------------------|
G:-7--5--7--10--7--5--7-----|
D:-7--5--7--10--7--5--7-----|
A:-5--3--5--8---5--3--5---0-|
D:------------------------0-|

e:-----------------------------------------------------------------------------------|
B:-----------------------------------------------------------------------------------|
G:-7--5/7-7-7------------------------------------------------------------------------|
D:-7--5/7-7-7----12--12-12--12-12-12-12-12-12-12-----12--12-12--12-12-12-12-12-12-12-|
A:-5--3/5-5-5-0--12--12-12--12-12-12-12-12-12-12--0--12--12-12--12-12-12-12-12-12-12-|
D:------------0--12--12-12--12-12-12-12-12-12-12--0--12--12-12--12-12-12-12-12-12-12-|

  dear mother                                                 set me free
e:------------------------------------------------------------------------------------|
B:----------------------------------------10----10----10------------------------------|
G:----------------------------------------10----10----10------------------------------|
D:----12--12-12--12-12-12-12-12-12-----12----12----12------12----------12----12----12-|
A:-0--12--12-12--12-12-12-12-12-12-------------------------12----------12----12----12-|
D:-0--12--12-12--12-12-12-12-12-12-12\---------------------12-------12----12----12-12-|

e:--------------------------------|
B:-----------------10----10----10-|
G:-----------------10----10----10-|
D:----------10/12-----12----12----|
A:-------8------------------------|
D:-10h12--------------------------|

  and mother                                                  let me be
e:------------------------------------------------------------------------------------|
B:-----------------------------------------7-5h7p5-------5b---------------------------|
G:-----------------------------------------7-5h7p5-------5b---------------------------|
D:-0--12--12-12--12-12-12-12-12-12-12--0-----------7p5-----------------12----12----12-|
A:-0--12--12-12--12-12-12-12-12-12-12--0---------------7---------------12----12----12-|
D:-0--12--12-12--12-12-12-12-12-12-12--0----------------------------12----12----12-12-|

e:-------------------------------------|
B:-------------------------------------|
G:-------------------------------------|
D:-------------12----12----12--x-x-x-x-|
A:-7h9p7-------12----12----12--x-x-x-x-|
D:---------12----12----12--12--x-x-x-x-|

   mother                                                    watch me run
e:------------------------------------------------------------------------------------|
B:----------------------------------------10----10----10------------------------------|
G:----------------------------------------10----10----10------------------------------|
D:----12--12-12--12-12-12-12-12-12-----12----12----12------12----------12----12----12-|
A:-0--12--12-12--12-12-12-12-12-12-------------------------12----------12----12----12-|
D:-0--12--12-12--12-12-12-12-12-12-12\---------------------12-------12----12----12-12-|

e:---------------------------------|
B:---------------------------------|
G:---------------------------------|
D:-12--12-12--12-12-12-12-12-12-12-|
A:-12--12-12--12-12-12-12-12-12-12-|
D:-12--12-12--12-12-12-12-12-12-12-|

   hey mother...                               i'm going to have some fun yeah
e:------------------------------------------------------------------------|
B:------------------------------------------------------------------------|
G:------------------------------------------------------------------------|
D:----12--12-12--12-12-12-12-12-12-12-----12--12-12--12-12-12-12-12-12-12-|
A:-0--12--12-12--12-12-12-12-12-12-12--0--12--12-12--12-12-12-12-12-12-12-|
D:-0--12--12-12--12-12-12-12-12-12-12--0--12--12-12--12-12-12-12-12-12-12-|

e:------------------------------------|
B:------------------------------------|
G:------------------------------------|
D:----12--12-12--12-12-12-12-12-12-12-|
A:-0--12--12-12--12-12-12-12-12-12-12-|
D:-0--12--12-12--12-12-12-12-12-12-12-|


   kris bass line                       x2
e:----------------------------------------|
B:----------------------------------------|
G:----------------------------------------|
D:----------------------------------------|
A:-0-0-0-0-0--0-0-0-0-0--0-0-0-0--0-0-0-0-|
D:-4-4-4-4-4--5-5-5-5-5--7-5-7-7--7-5-7-7-|
   paul
e:------------------------------------------------------------------------------|
B:-15-15-15-15-15-15--13/15-15-15-15-15-15-15-13/15-15-15-15-15-15--13/15-15-15-|
G:-14-14-14-14-14-14--12/14-14-14-14-14-14-14-12/14-14-14-14-14-14--12/14-14-14-|
D:------------------------------------------------------------------------------|
A:------------------------------------------------------------------------------|
E:------------------------------------------------------------------------------|
   pat
e:-------------------------------------------------------|
B:-------------------------------------------------------|
G:-----7--7-7--7-7-7-7-7-7-7-----7--7-7--7-7-7-7-7-7-7-7-|
D:-----7--7-7--7-7-7-7-7-7-7-----7--7-7--7-7-7-7-7-7-7-7-|
A:-0-0-5--5-5--5-5-5-5-5-5-5-0-0-5--5-5--5-5-5-5-5-5-5-5-|
D:-0-0-----------------------0-0-------------------------|

                           x2
e:------------------------------------|
B:------------------------------------|
G:------------------------------------|
D:----12--12-12--12-12-12-12-12-12-12-|
A:-0--12--12-12--12-12-12-12-12-12-12-|
D:-0--12--12-12--12-12-12-12-12-12-12-|

    hey mother...
e:------------------------------------------------------------------------|
B:------------------------------------------------------------------------|
G:------------------------------------------------------------------------|
D:----12--12-12--12-12-12-12-12-12-12-----12--12-12--12-12-12-12-12-12-12-|
A:-0--12--12-12--12-12-12-12-12-12-12--0--12--12-12--12-12-12-12-12-12-12-|
D:-0--12--12-12--12-12-12-12-12-12-12--0--12--12-12--12-12-12-12-12-12-12-|

e:------------------------------------|
B:------------------------------------|
G:------------------------------------|
D:----12--12-12--12-12-12-12-12-12-12-|
A:-0--12--12-12--12-12-12-12-12-12-12-|
D:-0--12--12-12--12-12-12-12-12-12-12-|

e:------------------------------------------------------------------------|
B:------------------------------------------------------------------------|
G:------------------------------------------------------------------------|
D:----12--12-12--12-12-12-12-12-12-12-----12--12-12--12-12-12-12-12-12-12-|
A:-0--12--12-12--12-12-12-12-12-12-12--0--12--12-12--12-12-12-12-12-12-12-|
D:-0--12--12-12--12-12-12-12-12-12-12--0--12--12-12--12-12-12-12-12-12-12-|

e:------------------------------------|
B:------------------------------------|
G:------------------------------------|
D:----12--12-12--12-12-12-12-12-12-12-|
A:-0--12--12-12--12-12-12-12-12-12-12-|
D:-0--12--12-12--12-12-12-12-12-12-12-|

           if you want to...
e:----------------------------------------------------------------|
B:----------------------------------------------------------------|
G:-2-2-2-2-2-2-2-2-2-2-2-2-2-2-2-2-2-2-2-2-2-2-2-2-2-2-2-2-2-2--7-|
D:-2-2-2-2-2-2-2-2-2-2-2-2-2-2-2-2-2-2-2-2-2-2-2-2-2-2-2-2-2-2--7-|
A:-0-0-0-0-0-0-0-0-0-0-0-0-0-0-0-0-0-0-0-0-0-0-0-0-0-0-0-0-0-0--5-|
D:----------------------------------------------------------------|

                          x2
e:--------------------------|
B:--------------------------|
G:-7--5--7--10--7--5--7-----|
D:-7--5--7--10--7--5--7-----|
A:-5--3--5--8---5--3--5---0-|
D:------------------------0-|

e:---------------------------------------------------------------|
B:---------------------------------------------------------------|
G:-7-7-7--7-7--7-7-7-7-7-7-7-7---7-7-7--7-7--7-7-7-7-7-7-7-7---7-|
D:-7-7-7--7-7--7-7-7-7-7-7-7-7---7-7-7--7-7--7-7-7-7-7-7-7-7---7-|
A:-5-5-5--5-5--5-5-5-5-5-5-5-5-0h5-5-5--5-5--5-5-5-5-5-5-5-5-0h5-|
D:-----------------------------0-----------------------------0---|

e:-----------------------------|
B:-----------------------------|
G:-7-7-7--7-7--7-7-7-7-7-7-7-7-|
D:-7-7-7--7-7--7-7-7-7-7-7-7-7-|
A:-5-5-5--5-5--5-5-5-5-5-5-5-5-|
D:-----------------------------|

   kris                                 x4
e:----------------------------------------|
B:----------------------------------------|
G:----------------------------------------|
D:----------------------------------------|
A:-0-0-0-0-0--0-0-0-0-0--0-0-0-0--0-0-0-0-|
D:-4-4-4-4-4--5-5-5-5-5--7-5-7-7--7-5-7-7-|
   paul
e:------------------------------------------------------------------------------|
B:-15-15-15-15-15-15--13/15-15-15-15-15-15-15-13/15-15-15-15-15-15--13/15-15-15-|
G:-14-14-14-14-14-14--12/14-14-14-14-14-14-14-12/14-14-14-14-14-14--12/14-14-14-|
D:------------------------------------------------------------------------------|
A:------------------------------------------------------------------------------|
D:------------------------------------------------------------------------------|
   pat
e:-------------------------------------------------------|
B:-------------------------------------------------------|
G:-----7--7-7--7-7-7-7-7-7-7-----7--7-7--7-7-7-7-7-7-7-7-|
D:-----7--7-7--7-7-7-7-7-7-7-----7--7-7--7-7-7-7-7-7-7-7-|
A:-0-0-5--5-5--5-5-5-5-5-5-5-0-0-5--5-5--5-5-5-5-5-5-5-5-|
D:-0-0-----------------------0-0-------------------------|

                                                    x2
e:----------------------------------------------------|
B:----------------------------------------------------|
G:-7-7-7-7-7-7--8-8-8-8-8-8--9-9-9-9-9-9--8-8-8-8-8-8-|
D:-x-x-x-x-x-x--x-x-x-x-x-x--x-x-x-x-x-x--x-x-x-x-x-x-|
A:-5-5-5-5-5-5--6-6-6-6-6-6--7-7-7-7-7-7--6-6-6-6-6-6-|
D:----------------------------------------------------|

           if you want to...
e:----------------------------------------------------------------|
B:----------------------------------------------------------------|
G:-2-2-2-2-2-2-2-2-2-2-2-2-2-2-2-2-2-2-2-2-2-2-2-2-2-2-2-2-2-2--7-|
D:-2-2-2-2-2-2-2-2-2-2-2-2-2-2-2-2-2-2-2-2-2-2-2-2-2-2-2-2-2-2--7-|
A:-0-0-0-0-0-0-0-0-0-0-0-0-0-0-0-0-0-0-0-0-0-0-0-0-0-0-0-0-0-0--5-|
D:----------------------------------------------------------------|

                                                    x4
e:----------------------------------------------------|
B:----------------------------------------------------|
G:-7-7-7-7-7-7--8-8-8-8-8-8--9-9-9-9-9-9--8-8-8-8-8-8-|
D:-x-x-x-x-x-x--x-x-x-x-x-x--x-x-x-x-x-x--x-x-x-x-x-x-|
A:-5-5-5-5-5-5--6-6-6-6-6-6--7-7-7-7-7-7--6-6-6-6-6-6-|
D:-0-0-0-0-0-0--0-0-0-0-0-0--0-0-0-0-0-0--0-0-0-0-0-0-|

                                                                            x3
e:----------------------------------------------------------------------------|
B:----------------------------------------------------------------------------|
G:----------------------------------------------------------------------------|
D:----------------------------------------------------------------------------|
A:-12-12-12-12-12-12--13-13-13-13-13-13--14-14-14-14-14-14--13-13-13-13-13-13-|
E:-12-12-12-12-12-12--13-13-13-13-13-13--14-14-14-14-14-14--13-13-13-13-13-13-|

e:------------------------|
B:------------------------|
G:------------------------|
D:------------------------|
A:----------10h12p10------|
E:-10h12p10-----------12\-|

                                                    x4
e:----------------------------------------------------|
B:----------------------------------------------------|
G:-7-7-7-7-7-7--8-8-8-8-8-8--9-9-9-9-9-9--8-8-8-8-8-8-|
D:-x-x-x-x-x-x--x-x-x-x-x-x--x-x-x-x-x-x--x-x-x-x-x-x-|
A:-5-5-5-5-5-5--6-6-6-6-6-6--7-7-7-7-7-7--6-6-6-6-6-6-|
D:-0-0-0-0-0-0--0-0-0-0-0-0--0-0-0-0-0-0--0-0-0-0-0-0-|

e:-19bf-----(19bf)\--------------|
B:-------------------------------|
G:-------------------------------|
D:-------------------------------|
A:-------------------------------|
D:-------------------------------|

e:------------------------------------------------------------|
B:------------------------------------------------------------|
G:-7----------------------------7-----------------------------|
D:-7----------------------------7-----------------------------|
A:-5----------------------------5-----------------------------|
D:------------------------------------------------------------|




hillo son mex

13/12/12
Tap to rate this tab
# A B C D E F G H I J K L M N O P Q R S T U V W X Y Z