Song name
# A B C D E F G H I J K L M N O P Q R S T U V W X Y Z

Nirvana - Swap Meet tab

Drop D

0:00-0:02

e|--------|
B|--------|
G|-h9-----| * not sure how this sound is made on the recording,
D|--------|   but this is the right note anyhow.
A|--------|
D|--------|
 
Intro.

   m m     m m  
e|--------------------------------------------------------------------------|
B|--------------------------------------------------------------------------|
G|--------------------------------------------------------------------------|
D|-----3-------2---------3-------2---------3-------2---------3-------2------|
A|-----3-------2---------3-------2---------3-------2---------3-------2------|
D|-0-4-----0-3---3p2p0-4-----0-3---3p2p0-4-----0-3---3p2p0-4-----0-3---3p2p0|

Verse

e|-------------------|
B|-------------------|
G|-------------------|  
D|---3-------2-------| x24
A|---3-------2-------|
D|-4-----0-3---3p2p0-|

Chorus

e|------------------------------------|
B|------------------------------------|
G|------------------------------------|
D|-5---5-5-5-5---8---8-8-8-8-8-8------|
A|-5---5-5-5-5---8---8-8-8-8-8-8------|
D|-5---5-5-5-5---8---8-8-8-8-8-8-/12\-|
                                         x3*
e|---------------------------------|    
B|---------------------------------|
G|---------------------------------|
D|---------------------------------|
A|-----------------3---------------|
D|-0---3-2-1-0-1-3---0-3-2-1-0-1-0-|

*then play

e|-------------------------------|
B|-------------------------------|
G|-------------------------------|
D|-3-3-----2-2-----1-1-1-1-------|
A|-3-3-----2-2-----1-1-1-1-------|
D|-3-3-----2-2-----1-1-1-1-/10-0-|

Verse

Chorus

Solo

e|----------------------------------------------|
B|----------------------------0-----0----0----0-|
G|------------------------10p9--10p9-10p9-10p9--| 
D|-6p5p0-6p5p0-6p5p0-6p5p0----------------------| x3
A|----------------------------------------------|
D|----------------------------------------------|

e|----------------------------------------------|
B|-----------------------------0-----0----------|
G|-------------------------10p9--10p9-----------|
D|-6p5p0-6p5p0-6p5p0-6p5p0-------------0--------|
A|-------------------------------------0-/12\-0-|
D|---------------------------------------/12\-0-|

Verse

Chorus

I tabbed this by ear so let me know if there are any errors; I 
promise that I will correct them if there are. Anyway I love 
this song and just wanted to contribute what I feel is the most
accurate way to play this song. 

That's it, have fun!

| /  slide up
| \  slide down
| h  hammer-on
| p  pull-off
| ~  vibrato
| +  harmonic
| x  Mute note
Tap to rate this tab
# A B C D E F G H I J K L M N O P Q R S T U V W X Y Z