Song name
# A B C D E F G H I J K L M N O P Q R S T U V W X Y Z

Nirvana - Something In The Way Acoustic tab

Help us improve GuitareTab! Take a short survey!
Something in the Way - Nirvana (Unplugged)
(Tabbed by GrungeGirl21)
 
Tuning: Drop D

Intro (x1):      |---------------X4--------------| 
(4/4)
e:---------------|---------------|---------------|
B:---------------|---------------|---------------|
G:---------------|---------------|---------------|
D:---------------|------4----4---|------0----0---|
A:---------------|----4----4---4-|----0----0---0-|
D:---------------|4--------------|0--------------|

Verse (x8):

"Underneath the bridge..."

e:|---------------|---------------|
B:|---------------|---------------|
G:|---------------|---------------|
D:|------4----4---|------0----0---|
A:|----4----4---4-|----0----0---0-|
D:|4--------------|0--------------|

Pre Chorus (x1):

"...Feelings..."

e:------------------|
B:------------------|
G:--0-0-0-0-0-0-0-0-|
D:--4-4-4-4-4-4-4-4-|
A:--4-4-4-4-4-4-4-4-|
D:--4-4-4-4-4-4-4-4-|

Chorus (x8):

"Something in the way. Mmmm..."

e:|---------------|---------------|
B:|-2-2-2--2--2---|---------------|
G:|-3-3-3--3--3---|-0-0-0--0--0---| 
D:|-0-0-0--0--0--0|-4-4-4--4--4--0| 
A:|-0-0-0--0--0--0|-4-4-4--4--4--0| 
D:|-0-0-0--0--0--0|-4-4-4--4--4--0|
Related for Something In The Way Acoustic tab