Guitaretab - guitar tabs
Song name
# A B C D E F G H I J K L M N O P Q R S T U V W X Y Z

Nirvana - Do Re Mi tab

DO RE MI (solo acoustic, Album: WITH THE LIGHTS OUT) By JOSEPH  E-Mail: gampeppe@libero.it


TUNING: 1 STEP DOWN


CHORDS


E:  7-9-9-9-7-x

G#: 4-4-5-6-6-4

C#: 4-6-6-6-4-x

F#: 2-2-3-4-4-2


INTRO


E/G#/C#/F#/F#


VERSE


E         G#

If I may, and if I might,

C#          F#

Lie me down weeping.

E            G#

And if I say what it's like,

C#         F#	

I might be dreaming.

E            G#

And if I may and what is right,

C#              F#

Summertime this evening.


PRE-CHORUS x 3


  B                         A   C#/C
       
E|----------------|-----------------|
B|----------------|-----------------|
G|4---x-4-4---x-4-|4---x-4------6-5-|
D|4---x-4-4---x-4-|4---x-4--7-7-6-5-|
A|2---x-2-2---x-2-|2---x-2--7-7-4-3-|
E|----------------|---------5-5-----|

The years in his bonnet,
The things from his pocket,

  F#                                E                  D
                                                  
E|----------------|----------------|0---------------|----------------|
B|----------------|----------------|0---------------|----------------|
G|----------------|----------------|x---------------|--7-7-7-7-7-7---|
D|4---x-4-4---x-4-|4---x-4---4-4-0-|2---------------|--7-7-7-7-7-7---|
A|4---x-4-4---x-4-|4---x-4---4-4-0-|2---------------|--5-5-5-5-5-5---|
E|2---x-2-2---x-2-|2---x-2---2-2-0-|0---------------|----------------|

The chains from his knowing life long dream.     


CHORUS x 4


G#    E    

Do Re Mi.


POST CHORUS x 3


E|----------------|
B|----------------|
G|----------------|
D|----------------|
A|-7-6------------|
E|-----9-7-5-4-2-0|


x 1 


E|-0-0-0-0-0-0-0-0|
B|-0-0-0-0-0-0-0-0|
G|-0-0-0-0-0-0-0-0|
D|-0-0-0-0-0-0-0-0|
A|-7-6-0-0-0-0-0-0|
E|-0-0-9-7-5-4-2-0|


VERSE


E         G#   

If I may and if I might,

C#             F#

Wake me up and see me.

E       G#

If I do and if I lie,

C#               F#

Find me how this evening.

E             G#

And If I may, cold as ice,

C#             F#

I may have deceived me.


PRE-CHORUS x 3


  B                         A   C#/C
       
E|----------------|-----------------|
B|----------------|-----------------|
G|4---x-4-4---x-4-|4---x-4------6-5-|
D|4---x-4-4---x-4-|4---x-4--7-7-6-5-|
A|2---x-2-2---x-2-|2---x-2--7-7-4-3-|
E|----------------|---------5-5-----|


The ways in his socket,
The face from this moment.

[ Tab from: http://www.guitaretab.com/n/nirvana/54196.html ]
  F#                                E                  D
                                                  
E|----------------|----------------|0---------------|----------------|
B|----------------|----------------|0---------------|----------------|
G|----------------|----------------|x---------------|--7-7-7-7-7-7---|
D|4---x-4-4---x-4-|4---x-4---4-4-0-|2---------------|--7-7-7-7-7-7---|
A|4---x-4-4---x-4-|4---x-4---4-4-0-|2---------------|--5-5-5-5-5-5---|
E|2---x-2-2---x-2-|2---x-2---2-2-0-|0---------------|----------------|


The chains from his socket,
Bother me.


CHORUS x 6


G#    E

Do Re Mi.



POST CHORUS x 3

E|----------------|
B|----------------|
G|----------------|
D|----------------|
A|-7-6------------|
E|-----9-7-5-4-2-0|


x 5 


E|-0-0-0-0-0-0-0-0|
B|-0-0-0-0-0-0-0-0|
G|-0-0-0-0-0-0-0-0|
D|-0-0-0-0-0-0-0-0|
A|-7-6-0-0-0-0-0-0|
E|-0-0-9-7-5-4-2-0|


VERSE


E                G#

Wish me good and wish me light,

C#          F#

Finding how seeing.

E                G#

Is in their may, I just may cry,

C#               F#

Follow may completely.

E            G#    

I'm nowhere, and if I sigh,

C#          F#

Save me how teaming.

E            G#
 
And if I may and if I might,

C#            F#

Golden gun to bleed.


PRE-CHORUS x 3


  B                         A   C#/C
       
E|----------------|-----------------|
B|----------------|-----------------|
G|4---x-4-4---x-4-|4---x-4------6-5-|
D|4---x-4-4---x-4-|4---x-4--7-7-6-5-|
A|2---x-2-2---x-2-|2---x-2--7-7-4-3-|
E|----------------|---------5-5-----|


Rays in his pocket,
Rays from his wallet.


  F#                                E                  D
                                                  
E|----------------|----------------|0---------------|----------------|
B|----------------|----------------|0---------------|----------------|
G|----------------|----------------|x---------------|--7-7-7-7-7-7---|
D|4---x-4-4---x-4-|4---x-4---4-4-0-|2---------------|--7-7-7-7-7-7---|
A|4---x-4-4---x-4-|4---x-4---4-4-0-|2---------------|--5-5-5-5-5-5---|
E|2---x-2-2---x-2-|2---x-2---2-2-0-|0---------------|----------------|


Chains from his armor,
Am I deep?


CHORUS x 8


G#    E

Do Re Mi


POST CHORUS x 4


E|----------------|
B|----------------|
G|----------------|
D|----------------|
A|-7-6------------|
E|-----9-7-5-4-2-0|


END


   E
   
E|---|
B|---|
G|---|
D|-2-|
A|-2-|
E|-0-|
Related for Do Re Mi tab
Do Re Mi chords by Nirvana