Song name
# A B C D E F G H I J K L M N O P Q R S T U V W X Y Z

Nirvana - They Hung Him On A Cross tab

They Hung Him On a Cross  Nirvana

Tabbed by: matt
Email: rhinogta@yahoo.com
this song needs a good tab

Tuning:Standard
repeat this patttern for the E chord
e|-----------------------------------------------------------------------------|
B|---0----0--------------------------------------------------------------------|
G|---1----1--------------------------------------------------------------------|
D|-2-2--2-2--------------------------------------------------------------------|
A|-2----2----------------------------------------------------------------------|
E|-0----0----------------------------------------------------------------------|
   Cb or B#              A
e|---------------------------------------------------------------------------|
B|---------------------------------------------------------------------------|
G|-4---------------------2---------------------------------------------------|
D|-4---------------------2---------------------------------------------------|
A|-2---------------------0---------------------------------------------------|
E|---------------------------------------------------------------------------|
 E~ E  E  E  E  E  E  E  E  E  E  E  E  E  E  E  E  E  E  E  E  E  E  E  E  E
 {INTRO}                They hung him on a Cross   They hung him on a cross
 E  E  E  E  E  E  E  Cb  Cb  Cb   E  E  E  E  E  E  E  E  E  A  A  A  A
 They hung him on a cross for meee.  One day when i was lost, They hung him
A  A  E  E  E  E   E  E  Cb  Cb  Cb  A  E   E
on a cross.  They Hung him on a cross for meee.

This pattern stays the same for the whole song with some palm muting during some of the 
parts.  Listen to the song and you`ll here it. I hope this tab isnt too confusing. Very 
song that is similar to Aint it a Shame (also Nirvana).  later
Tap to rate this tab
# A B C D E F G H I J K L M N O P Q R S T U V W X Y Z