Song name
# A B C D E F G H I J K L M N O P Q R S T U V W X Y Z

Nirvana - Token Eastern Song tab

Submitted by: Brian
E-Mail: NirVanA19866@aol.com
Song Title: Tolen Eastern Song
Artist: Nirvana
Album: With The Lights Out(Box Set)Cd 1
Tunning: Standard

e----------------------------------------------------------------------|
B----------------------------------------------------------------------|
G----------------------------------------------------------------------|
D-----6---------6---------6-6-6-9-9-9-12-12-12-----6---------6---------|
A-7-7---8-5-7-7---8-5-7-7----------------------7-7---8-5-7-7---8-5-7-7-|
E----------------------------------------------------------------------|

e----------------------------------------------------------------------|
B-------------------------------------------17-17-17-3-----------------|
G----------------------------------14-16-19-----------2-2-0-2-3p-2p-0--|
D-6-6-6-9-9-9-12-12-12-14-14-14-12-14--------------------------------2-|
A----------------------------------------------------------------------|
E----------------------------------------------------------------------|

e--------------------------------------------------------------|
B-----------------------------------------14-14-14-14-14-14-14-|
G--4-4-4-7-7-7-9-9-9-12-12-12-14-14-14-12-14-14-14-14-14-14-14-|
D-0------------------------------------------------------------|
A--------------------------------------------------------------|
E--------------------------------------------------------------|
(This Is A More Accurate Version Of The Solo A Few Parts Might Be A Bit Of But Not Enough To Notice)

If You Have Any Corrections E-Mail Me
Tap to rate this tab
 
# A B C D E F G H I J K L M N O P Q R S T U V W X Y Z