Song name
# A B C D E F G H I J K L M N O P Q R S T U V W X Y Z

Nirvana - Scentless Apprentice Live tab

-----------------------------------------------------------------------------
			     SONG NAME - Band Name
-----------------------------------------------------------------------------
Tabbed by: Olif8
Email:

Okay, so here is Scentless Apprentice Live.  I've tabbed the live performance from the 
Live and Loud concert, at Pier 43 in Seattle, recorded in 1993.  I'm almost positive this 
perfectly correct.

Any comments, leave in the appropriate section.


Tuning: Db Ab Db Gb Bb Eb (Half-step down, drop D)

Intro

eb|-0-0-0-0-1-1-1-1-2-2-2-2-3-3/19-------------------------------------------|
Bb|-0-0-0-0-0-0-0-0-0-0-0-0-0-0----------------------------------------------|
Gb|--------------------------------------------------------------------------|
Db|--------------------------------------------------------------------------|
Ab|--------------------------------------------------------------------------|
Db|--------------------------------------------------------------------------|

eb|-0-0-0-0-1-1-1-1-2-2-2-2-3-3/19-------------------------------------------|
Bb|-0-0-0-0-0-0-0-0-0-0-0-0-0-0----------------------------------------------|
Gb|--------------------------------------------------------------------------|
Db|--------------------------------------------------------------------------|
Ab|--------------------------------------------------------------------------|
Db|--------------------------------------------------------------------------|

eb|-0-0-0-0-1-1-1-1-2-2-2-2-3-3/19-------------------------------------------|
Bb|-0-0-0-0-0-0-0-0-0-0-0-0-0-0----------------------------------------------|
Gb|--------------------------------------------------------------------------|
Db|--------------------------------------------------------------------------|
Ab|--------------------------------------------------------------------------|
Db|--------------------------------------------------------------------------|

eb|-0-0-0-0-1-1-1-1-2-2-2-2-3-3/19-------------------------------------------|
Bb|-0-0-0-0-0-0-0-0-0-0-0-0-0-0----------------------------------------------|
Gb|--------------------------------------------------------------------------|
Db|--------------------------------------------------------------------------|
Ab|--------------------------------------------------------------------------|
Db|--------------------------------------------------------------------------|


Pre-verse

eb|--------------------------------------------------------------------------|
Bb|--------------------------------------------------------------------------|
Gb|--------------------------------------------------------------------------|
Db|--------------------------------------------------------------------------|
Ab|-4-4-7-4-7-4-4-4-4-7-4-7--------------------------------------------------|
Db|-4-4-7-4-7-4-4-4-4-7-4-7--------------------------------------------------|

eb|--------------------------------------------------------------------------|
Bb|--------------------------------------------------------------------------|
Gb|--------------------------------------------------------------------------|
Db|--------------------------------------------------------------------------|
Ab|-4-4-7-4-7-4-4-4-4-7-4-7--------------------------------------------------|
Db|-4-4-7-4-7-4-4-4-4-7-4-7--------------------------------------------------|

Verse 1

eb|--------------------------------------------------------------------------|
Bb|--4gb---------------------------------------------------------------------|
Gb|--------------------------------------------------------------------------|
Db|--------------------------------------------------------------------------|
Ab|--------------------------------------------------------------------------|
Db|--------------------------------------------------------------------------|

eb|--------------------------------------------------------------------------|
Bb|--------------------------------------------------------------------------|
Gb|--------------------------------------------------------------------------|
Db|--------------------------------------------------------------------------|
Ab|-4-4-7-4-7-4-4-4-4-7-4-7--------------------------------------------------|
Db|-4-4-7-4-7-4-4-4-4-7-4-7--------------------------------------------------|

eb|--------------------------------------------------------------------------|
Bb|--4gb---------------------------------------------------------------------|
Gb|--------------------------------------------------------------------------|
Db|--------------------------------------------------------------------------|
Ab|--------------------------------------------------------------------------|
Db|--------------------------------------------------------------------------|

eb|--------------------------------------------------------------------------|
Bb|--------------------------------------------------------------------------|
Gb|--------------------------------------------------------------------------|
Db|--------------------------------------------------------------------------|
Ab|-4-4-7-4-7-4-4-4-4-7-4-7--------------------------------------------------|
Db|-4-4-7-4-7-4-4-4-4-7-4-7--------------------------------------------------|

eb|--------------------------------------------------------------------------|
Bb|--4gb---------------------------------------------------------------------|
Gb|--------------------------------------------------------------------------|
Db|--------------------------------------------------------------------------|
Ab|--------------------------------------------------------------------------|
Db|--------------------------------------------------------------------------|

eb|--------------------------------------------------------------------------|
Bb|--------------------------------------------------------------------------|
Gb|--------------------------------------------------------------------------|
Db|--------------------------------------------------------------------------|
Ab|-4-4-7-4-7-4-4-4-4-7-4-7--------------------------------------------------|
Db|-4-4-7-4-7-4-4-4-4-7-4-7--------------------------------------------------|

eb|--------------------------------------------------------------------------|
Bb|--4gb---------------------------------------------------------------------|
Gb|--------------------------------------------------------------------------|
Db|--------------------------------------------------------------------------|
Ab|--------------------------------------------------------------------------|
Db|--------------------------------------------------------------------------|

eb|--------------------------------------------------------------------------|
Bb|--------------------------------------------------------------------------|
Gb|--------------------------------------------------------------------------|
Db|--------------------------------------------------------------------------|
Ab|-4-4-7-4-7-4-4-4-4-7-4-7--------------------------------------------------|
Db|-4-4-7-4-7-4-4-4-4-7-4-7--------------------------------------------------|

Pre-chorus

eb|---------------------------------------------------------------------------|
Bb|---------------------------------------------------------------------------|
Gb|-5-5-5-5-7-7-7-7-9-9-9-9-1010101012-12-12-12-14-14-14-17-17-14-14-14-14-14-|
Db|-x-x-x-x-x-x-x-x-x-x-x-x-x-x-x-x--x--x--x--x--x--x--x--x--x--x--x--x--x--x-|
Ab|-3-3-3-3-5-5-5-5-7-7-7-7-8-8-8-8-10-10-10-10-12-12-12-15-15-12-12-12-12-12-|
Db|---------------------------------------------------------------------------|

eb|--------------------------------------------------------------------------|
Bb|--------------------------------------------------------------------------|
Gb|-14-14--------------------------------------------------------------------|
Db|--x--x--------------------------------------------------------------------|
Ab|-12-12--------------------------------------------------------------------|
Db|--------------------------------------------------------------------------|

Chorus

eb|-0-0-0-0-1-1-1-1-2-2-2-2-3-3/19-------------------------------------------|
Bb|-0-0-0-0-0-0-0-0-0-0-0-0-0-0----------------------------------------------|
Gb|--------------------------------------------------------------------------|
Db|--------------------------------------------------------------------------|
Ab|--------------------------------------------------------------------------|
Db|--------------------------------------------------------------------------|

eb|-0-0-0-0-1-1-1-1-2-2-2-2-3-3/19-------------------------------------------|
Bb|-0-0-0-0-0-0-0-0-0-0-0-0-0-0----------------------------------------------|
Gb|--------------------------------------------------------------------------|
Db|--------------------------------------------------------------------------|
Ab|--------------------------------------------------------------------------|
Db|--------------------------------------------------------------------------|

eb|-0-0-0-0-1-1-1-1-2-2-2-2-3-3/19-------------------------------------------|
Bb|-0-0-0-0-0-0-0-0-0-0-0-0-0-0----------------------------------------------|
Gb|--------------------------------------------------------------------------|
Db|--------------------------------------------------------------------------|
Ab|--------------------------------------------------------------------------|
Db|--------------------------------------------------------------------------|

eb|-0-0-0-0-1-1-1-1-2-2-2-2-3-3/19-------------------------------------------|
Bb|-0-0-0-0-0-0-0-0-0-0-0-0-0-0----------------------------------------------|
Gb|--------------------------------------------------------------------------|
Db|--------------------------------------------------------------------------|
Ab|--------------------------------------------------------------------------|
Db|--------------------------------------------------------------------------|

Pre-verse

eb|--------------------------------------------------------------------------|
Bb|--------------------------------------------------------------------------|
Gb|--------------------------------------------------------------------------|
Db|--------------------------------------------------------------------------|
Ab|-4-4-7-4-7-4-4-4-4-7-4-7--------------------------------------------------|
Db|-4-4-7-4-7-4-4-4-4-7-4-7--------------------------------------------------|

Verse 2

eb|--------------------------------------------------------------------------|
Bb|--4gb---------------------------------------------------------------------|
Gb|--------------------------------------------------------------------------|
Db|--------------------------------------------------------------------------|
Ab|--------------------------------------------------------------------------|
Db|--------------------------------------------------------------------------|

eb|--------------------------------------------------------------------------|
Bb|--------------------------------------------------------------------------|
Gb|--------------------------------------------------------------------------|
Db|--------------------------------------------------------------------------|
Ab|-4-4-7-4-7-4-4-4-4-7-4-7--------------------------------------------------|
Db|-4-4-7-4-7-4-4-4-4-7-4-7--------------------------------------------------|

eb|--------------------------------------------------------------------------|
Bb|--4gb---------------------------------------------------------------------|
Gb|--------------------------------------------------------------------------|
Db|--------------------------------------------------------------------------|
Ab|--------------------------------------------------------------------------|
Db|--------------------------------------------------------------------------|

eb|--------------------------------------------------------------------------|
Bb|--------------------------------------------------------------------------|
Gb|--------------------------------------------------------------------------|
Db|--------------------------------------------------------------------------|
Ab|-4-4-7-4-7-4-4-4-4-7-4-7--------------------------------------------------|
Db|-4-4-7-4-7-4-4-4-4-7-4-7--------------------------------------------------|

eb|--------------------------------------------------------------------------|
Bb|--4gb---------------------------------------------------------------------|
Gb|--------------------------------------------------------------------------|
Db|--------------------------------------------------------------------------|
Ab|--------------------------------------------------------------------------|
Db|--------------------------------------------------------------------------|

eb|--------------------------------------------------------------------------|
Bb|--------------------------------------------------------------------------|
Gb|--------------------------------------------------------------------------|
Db|--------------------------------------------------------------------------|
Ab|-4-4-7-4-7-4-4-4-4-7-4-7--------------------------------------------------|
Db|-4-4-7-4-7-4-4-4-4-7-4-7--------------------------------------------------|

eb|--------------------------------------------------------------------------|
Bb|--4gb---------------------------------------------------------------------|
Gb|--------------------------------------------------------------------------|
Db|--------------------------------------------------------------------------|
Ab|--------------------------------------------------------------------------|
Db|--------------------------------------------------------------------------|

eb|--------------------------------------------------------------------------|
Bb|--------------------------------------------------------------------------|
Gb|--------------------------------------------------------------------------|
Db|--------------------------------------------------------------------------|
Ab|-4-4-7-4-7-4-4-4-4-7-4-7--------------------------------------------------|
Db|-4-4-7-4-7-4-4-4-4-7-4-7--------------------------------------------------|

Pre-chorus

eb|---------------------------------------------------------------------------|
Bb|---------------------------------------------------------------------------|
Gb|-5-5-5-5-7-7-7-7-9-9-9-9-1010101012-12-12-12-14-14-14-17-17-14-14-14-14-14-|
Db|-x-x-x-x-x-x-x-x-x-x-x-x-x-x-x-x--x--x--x--x--x--x--x--x--x--x--x--x--x--x-|
Ab|-3-3-3-3-5-5-5-5-7-7-7-7-8-8-8-8-10-10-10-10-12-12-12-15-15-12-12-12-12-12-|
Db|---------------------------------------------------------------------------|

eb|--------------------------------------------------------------------------|
Bb|--------------------------------------------------------------------------|
Gb|-14-14--------------------------------------------------------------------|
Db|--x--x--------------------------------------------------------------------|
Ab|-12-12--------------------------------------------------------------------|
Db|--------------------------------------------------------------------------|

Chorus

eb|-0-0-0-0-1-1-1-1-2-2-2-2-3-3/19-------------------------------------------|
Bb|-0-0-0-0-0-0-0-0-0-0-0-0-0-0----------------------------------------------|
Gb|--------------------------------------------------------------------------|
Db|--------------------------------------------------------------------------|
Ab|--------------------------------------------------------------------------|
Db|--------------------------------------------------------------------------|

eb|-0-0-0-0-1-1-1-1-2-2-2-2-3-3/19-------------------------------------------|
Bb|-0-0-0-0-0-0-0-0-0-0-0-0-0-0----------------------------------------------|
Gb|--------------------------------------------------------------------------|
Db|--------------------------------------------------------------------------|
Ab|--------------------------------------------------------------------------|
Db|--------------------------------------------------------------------------|

eb|-0-0-0-0-1-1-1-1-2-2-2-2-3-3/19-------------------------------------------|
Bb|-0-0-0-0-0-0-0-0-0-0-0-0-0-0----------------------------------------------|
Gb|--------------------------------------------------------------------------|
Db|--------------------------------------------------------------------------|
Ab|--------------------------------------------------------------------------|
Db|--------------------------------------------------------------------------|

eb|-0-0-0-0-1-1-1-1-2-2-2-2-3-3/19-------------------------------------------|
Bb|-0-0-0-0-0-0-0-0-0-0-0-0-0-0----------------------------------------------|
Gb|--------------------------------------------------------------------------|
Db|--------------------------------------------------------------------------|
Ab|--------------------------------------------------------------------------|
Db|--------------------------------------------------------------------------|

Solo/Breakdown:

Very Random Feedback

Pre-verse

eb|--------------------------------------------------------------------------|
Bb|--------------------------------------------------------------------------|
Gb|--------------------------------------------------------------------------|
Db|--------------------------------------------------------------------------|
Ab|-4-4-7-4-7-4-4-4-4-7-4-7--------------------------------------------------|
Db|-4-4-7-4-7-4-4-4-4-7-4-7--------------------------------------------------|

Verse 3

eb|--------------------------------------------------------------------------|
Bb|--4gb---------------------------------------------------------------------|
Gb|--------------------------------------------------------------------------|
Db|--------------------------------------------------------------------------|
Ab|--------------------------------------------------------------------------|
Db|--------------------------------------------------------------------------|

eb|--------------------------------------------------------------------------|
Bb|--------------------------------------------------------------------------|
Gb|--------------------------------------------------------------------------|
Db|--------------------------------------------------------------------------|
Ab|-4-4-7-4-7-4-4-4-4-7-4-7--------------------------------------------------|
Db|-4-4-7-4-7-4-4-4-4-7-4-7--------------------------------------------------|

eb|--------------------------------------------------------------------------|
Bb|--4gb---------------------------------------------------------------------|
Gb|--------------------------------------------------------------------------|
Db|--------------------------------------------------------------------------|
Ab|--------------------------------------------------------------------------|
Db|--------------------------------------------------------------------------|

eb|--------------------------------------------------------------------------|
Bb|--------------------------------------------------------------------------|
Gb|--------------------------------------------------------------------------|
Db|--------------------------------------------------------------------------|
Ab|-4-4-7-4-7-4-4-4-4-7-4-7--------------------------------------------------|
Db|-4-4-7-4-7-4-4-4-4-7-4-7--------------------------------------------------|

eb|--------------------------------------------------------------------------|
Bb|--4gb---------------------------------------------------------------------|
Gb|--------------------------------------------------------------------------|
Db|--------------------------------------------------------------------------|
Ab|--------------------------------------------------------------------------|
Db|--------------------------------------------------------------------------|

eb|--------------------------------------------------------------------------|
Bb|--------------------------------------------------------------------------|
Gb|--------------------------------------------------------------------------|
Db|--------------------------------------------------------------------------|
Ab|-4-4-7-4-7-4-4-4-4-7-4-7--------------------------------------------------|
Db|-4-4-7-4-7-4-4-4-4-7-4-7--------------------------------------------------|

eb|--------------------------------------------------------------------------|
Bb|--4gb---------------------------------------------------------------------|
Gb|--------------------------------------------------------------------------|
Db|--------------------------------------------------------------------------|
Ab|--------------------------------------------------------------------------|
Db|--------------------------------------------------------------------------|

eb|--------------------------------------------------------------------------|
Bb|--------------------------------------------------------------------------|
Gb|--------------------------------------------------------------------------|
Db|--------------------------------------------------------------------------|
Ab|-4-4-7-4-7-4-4-4-4-7-4-7--------------------------------------------------|
Db|-4-4-7-4-7-4-4-4-4-7-4-7--------------------------------------------------|

Pre-chorus

eb|---------------------------------------------------------------------------|
Bb|---------------------------------------------------------------------------|
Gb|-5-5-5-5-7-7-7-7-9-9-9-9-1010101012-12-12-12-14-14-14-17-17-14-14-14-14-14-|
Db|-x-x-x-x-x-x-x-x-x-x-x-x-x-x-x-x--x--x--x--x--x--x--x--x--x--x--x--x--x--x-|
Ab|-3-3-3-3-5-5-5-5-7-7-7-7-8-8-8-8-10-10-10-10-12-12-12-15-15-12-12-12-12-12-|
Db|---------------------------------------------------------------------------|

eb|--------------------------------------------------------------------------|
Bb|--------------------------------------------------------------------------|
Gb|-14-14--------------------------------------------------------------------|
Db|--x--x--------------------------------------------------------------------|
Ab|-12-12--------------------------------------------------------------------|
Db|--------------------------------------------------------------------------|

Chorus

eb|-0-0-0-0-1-1-1-1-2-2-2-2-3-3/19-------------------------------------------|
Bb|-0-0-0-0-0-0-0-0-0-0-0-0-0-0----------------------------------------------|
Gb|--------------------------------------------------------------------------|
Db|--------------------------------------------------------------------------|
Ab|--------------------------------------------------------------------------|
Db|--------------------------------------------------------------------------|

eb|-0-0-0-0-1-1-1-1-2-2-2-2-3-3/19-------------------------------------------|
Bb|-0-0-0-0-0-0-0-0-0-0-0-0-0-0----------------------------------------------|
Gb|--------------------------------------------------------------------------|
Db|--------------------------------------------------------------------------|
Ab|--------------------------------------------------------------------------|
Db|--------------------------------------------------------------------------|

eb|-0-0-0-0-1-1-1-1-2-2-2-2-3-3/19-------------------------------------------|
Bb|-0-0-0-0-0-0-0-0-0-0-0-0-0-0----------------------------------------------|
Gb|--------------------------------------------------------------------------|
Db|--------------------------------------------------------------------------|
Ab|--------------------------------------------------------------------------|
Db|--------------------------------------------------------------------------|

eb|-0-0-0-0-1-1-1-1-2-2-2-2-3-3/19-------------------------------------------|
Bb|-0-0-0-0-0-0-0-0-0-0-0-0-0-0----------------------------------------------|
Gb|--------------------------------------------------------------------------|
Db|--------------------------------------------------------------------------|
Ab|--------------------------------------------------------------------------|
Db|--------------------------------------------------------------------------|
Tap to rate this tab
 
# A B C D E F G H I J K L M N O P Q R S T U V W X Y Z