Song name
# A B C D E F G H I J K L M N O P Q R S T U V W X Y Z

Nirvana - Raunchola tab

Help us improve GuitareTab! Take a short survey!
---------------------------------------------------------------------
			     Raunchola - Nirvana
---------------------------------------------------------------------
Tabbed by:Tad Nuggent
Email:Clockface45@yahoo.com

Sorry this is only the Raunchola part of the track on the With The Lights Out box set

Tuning:Half Step Down

Verse:
  Strike chord Once 
eb|---2---------------------------------------------------------------|
Bb|---2---------------------------------------------------------------|
Gb|---3---------------------------------------------------------------|
Db|---4---------------------------------------------------------------|
Ab|-------------------------------------------------------------------|
Eb|-------------------------------------------------------------------|
  Then strum these chords into chorus 
eb|---2---------------------------------------------------------------|
Bb|---2----------------4---------------6------------------------------|
Gb|---3----------------4---------------6------------------------------|
Db|---4----------------4---------------6------------------------------|
Ab|-------------------------------------------------------------------|
Eb|-------------------------------------------------------------------|
Chorus:
  Stomp on your box or whatever you use for distortion
eb|-------------------------------------------------------------------|
Bb|-------------------------------------------------------------------|
Gb|-------------------------------------------------------------------|
Db|---4---4---4---4---4---4---4----4---4---4---4---4---4---4-3p0------|
Ab|---4---4---4---4---4---4---4-3~-4---4---4---4---4---4---4----4p3p0-|
Eb|---2-0-2-0-2-0-2-0-2-0-2-0-2----2-0-2-0-2-0-2-0-2-0-2-0-2----------|
 p.m.}-------------------------{  }-------------------------{

After the last chorus of the Raunchola part improv anti solo into Zeppelin's Moby Dick

i recomend listening to the song to master the timing

| /  slide up
| \  slide down
| h  hammer-on
| p  pull-off
| ~  vibrato
| +  harmonic
| x  Mute note
=====================================================================
Related for Raunchola tab