Song name
# A B C D E F G H I J K L M N O P Q R S T U V W X Y Z

Nirvana - Spell Correctly tab

INTRO

e|0-----0---0---0-------0---0-0-0-------3---3---3---3--------------|
b|1-----1---1---1-1-----1---1-1-1-0-----0---0---0---0--------------|
g|2-----2---2---2-2-----2---2-2-2-0---------------------0----------|
d|2---2-------2---2---2-----------0-----------0---0-----0----------|
a|0---------------0---------------0---------------2----------------|
E|------------------------------------3-----------3---------3-2-3-0|

e|-------------------------------------------------------------|
b|------2-----------------------0-------0----------------------|
g|------2-----2---------2---2-2-0-------0-----0---0------------|
d|2---2-------2-------2-2---2-2-0-------------0---0---0--------|
a|0---------0---0-0--------------------------------------------|
E|--------------------------------3---3-----3---3---3---3-2-3-0|

VERSE 1

e|--------------------------------------3----------------------|
b|--------------------------------------0---0------------------|
g|--------------------2-----2---0-----------0-------0----------|
d|2---2-2-----2---2-----2-----2-------0-------0-----0----------|
a|0---------0---0-------0--------------------------------------|
E|--------------------------------3-------------3-----x-x-2-3-0|

e|--------------------------------------3-----3----------------|
b|------------------------------0-------0-----0-------------0-0|
g|------2-----2---------2---2---0-------0-----0-------------0-0|
d|2---2---------2-2---2-------2---0---0-----0-----0-0-0-0-0-0--|
a|0---------0---0-0-----------0---x---------x-----x-x-x-x-x-x--|
E|--------------------------------3---------3-----3-3-3-3-3-3--|

VERSE 2

e|--------------------------------------3------------------------|
b|------------1---------1-----1---------0---0--------------------|
g|------2-----2---------2-----2-------------0---------0----------|
d|----2---------------2-------------------------------0----------|
a|0---------0---0-0---------0---0-------------2------------------|
E|--------------------------------3---3---------3---3-----3-2-3-0|

e|------------------------------------3----------------------|
b|------2---------------2---------0---0-------------0-0-0-0-0|
g|------2-------2-------2-----2---0---0-----0---0-0-0-0-0-0-0|
d|2---2-------2---2---2-------2---0---------0---0-0-0-0-0-0-0|
a|0---------0-----0---0-----0-----x-------------x-x-x-x-x-x-x|
E|------------------------------0-3-------3---3-3-3-3-3-3-3-3|

VERSE 3(Played slower)

e|-------------------------------------------------------------|
b|2-----2-------------2---------------0------------------------|
g|2---2-------2-----------------------0-----0---------0--------|
d|2---------------2-----2---2p0---------------------0----------|
a|0---------0---0-0---------0-------2---------2-2-----------0--|
E|--------------------------------3-------3-----3---------3-2-0|

e|----------------------------------3-3-3-3----------------|
b|------2---------------2---2-----0-0-0-0-0---0-0-0-0-0-0-0|
g|------2-----2---------2---2-----0-0-0-0-0---0-0-0-0-0-0-0|
d|2---2-----2---2-2---2-----------0-----0-----0-0-0-0-0-0-0|
a|0---------0---0-0---0-----------x-----x-----x-x-x-x-x-x-x|
E|------------------------------0-3-----3---3-3-3-3-3-3-3-3|

CHORUS
                                                                        X2
e|--------------------------------------------------------------| 
b|--------------0---------------0------------------------------0|
g|5---5-5---5-5-0-7---7-7---7-7-0------------------------------0| 
d|5---5-5---5-5---7---7-7---7-7---8---8-8---8-8-8-8---8-8---8-8-| 
a|3---3-3---3-3---5---5-5---5-5---8---8-8---8-8-8-8---8-8---8-8-|
E|--------------------------------6---6-6---6-6-6-6---6-6---6-6-| 

e|--------------------------------------------------------------|
b|--------------0---------------0------------------------------0|
g|5---5-5---5-5-0-7---7-7---7-7-0------------------------------0|
d|5---5-5---5-5---7---7-7---7-7---8---8-8---8-8-8-8---8-8-8-8-8-|
a|3---3-3---3-3---5---5-5---5-5---8---8-8---8-8-8-8---8-8-8-8-8-|
E|--------------------------------6---6-6---6-6-6-6---6-6-6-6-6-|

e|-------------------------------------------------------------|
b|--------------0---------------0------------------------------|
g|5---5-5---5-5-0-7---7-7---7-7-0------------------------------|
d|5---5-5---5-5---7---7-7---7-7---8---8-8-8-8-8-8-8-8-8-8-8-8-8|
a|3---3-3---3-3---5---5-5---5-5---8---8-8-8-8-8-8-8-8-8-8-8-8-8|
E|--------------------------------6---6-6-6-6-6-6-6-6-6-6-6-6-6|


OUTRO

e|----------------------------0------------------------------------------|
b|------0-----0---3-1---1-----1-----1---------1-----1---------1----------|
g|------2-----2---2-2---2-----2-----2---------2-----2---------2-----2----|
d|----2-----2---2-2-2---2-------------------2-----2---2-----2-----2---2--|
a|0-------------------------0-----0---0-0---------------0---------------0|
E|-----------------------------------------------------------------------|
Tap to rate this tab
# A B C D E F G H I J K L M N O P Q R S T U V W X Y Z