Guitaretab - guitar tabs
Song name
# A B C D E F G H I J K L M N O P Q R S T U V W X Y Z

Nirvikalpa - Antim Sanskar tab

## For comments, suggestions & corrections e-mail me rishi1313@yahoo.com ##


Tuning: E A D G B e
. - Palm Mute
s - slide

To get the same tone, use a jackson dinky [neck humbucker all the way] with a boss mt-2 
on high gain.


Intro:

||------------------------------------|------------------------------------||
||------------------------------------|------------------------------------||
||------------------------------------|------------------------------------||
||---------------------------8-7------|---------------------------7-8-7----||
||-7------7-----7-----7-10-7-8-7-10-7-|-7------7-----7-----7-10-7-7-8-7-10-||
||-0-00-0-0-0-0-0-0-0-0-10-7-----10-7-|-0-00-0-0-0-0-0-0-0-0-10-7-------10-||
     .. .   . .   . .                     .. .    . .    . .

Riff A

||-----------------------------------|-----------------------------------|
||-----------------------------------|-----------------------------------|
||-----------------------------------|-----------------------------------|
||-----------------------------------|-----------------------------------|
||-7--------7---8---7--------7---8---|-7--------7---8---7--------7---7-8-|
||-0-0-00-0-0-0-6---0-0-00-0-5-0-6-0-|-0-0-00-0-0-0-6---0-0-00-0-5-0-5-6-|
     . .. .   .       . .. .   .   .     . .. .   .     . . .. .      s

|-----------------------------------|-----------------------------------||
|-----------------------------------|-----------------------------------||
|-----------------------------------|-----------------------------------||
|-----------------------------------|-----------------------------------||
|-7--------7---8---7--------7---8---|-7--------7---8---7--------6-5-4-3-||
|-0-0-00-0-0-0-6---0-0-00-0-5-0-6-0-|-0-0-00-0-0-0-6---0-0-00-0-4-3-2-1-||
    . .. .   .       . .. .   .   .     . .. .   .       . .. .

Riff B

||-----------------------------------|-----------------------------------||
||-----------------------------------|-----------------------------------||
||-----------------------------------|-----------------------------------||
||-----------------------------------|-----------------------------------||
||-7----------------8-------3--------|-7----------------8-------7--------||
||-0-------00000000-6-------1-111111-|-0-------00000000-6-------5-555555-||
           ........           ......           ........           ......

Riff C (Solo) triple feel
[ Tab from: http://www.guitaretab.com/n/nirvikalpa/90715.html ]
||-------------|-------------|-------------|-------------|
||-------------|-------------|-------------|-------------|
||-------------|-------------|-------------|-------------|
||-------------|-------------|-------------|-------------|
||-7-----------|-7-----------|-7-----------|-7-----------|
||-5---5-5-5-5-|-5---5-5-5-5-|-5---5-5-5-5-|-5---5-5-5-5-|
       . . . .       . . . .       . . . .       . . . .

|-------------|-------------|------------------|------------------|
|-------------|-------------|------------------|------------------|
|-------------|-------------|------------------|------------------|
|-------------|-------------|------------------|------------------|
|-10----------|-10----------|-12---------------|-12---------------|
|-8---8-8-8-8-|-8---8-8-8-8-|-10---10-10-10-10-|-10---10-10-10-10-|
      . . . .       . . . .        .  .  .  .         .  .  .  .

|-------------|-------------|-------------|-------------|
|-------------|-------------|-------------|-------------|
|-------------|-------------|-------------|-------------|
|-------------|-------------|-------------|-------------|
|-7-----------|-7-----------|-7-----------|-7-----------|
|-5---5-5-5-5-|-5---5-5-5-5-|-5---5-5-5-5-|-5---5-5-5-5-|
      . . . .       . . . .       . . . .       . . . .

|-------------|-------------|-------------------------||
|-------------|-------------|-------------------------||
|-------------|-------------|-------------------------||
|-------------|-------------|-------------------------||
|-10----------|-10----------|-3-----------2-----------||
|-8---8-8-8-8-|-8---8-8-8-8-|-1---1-1-1-1-0---0-0-0-0-||
      . . . .       . . . .       . . . .     . . . .


That's it for now, i'll tab the solo later. Enjoy! \m/

Intro: Intro X4

Verse 1: Riff A X2
Interlude: Riff B X2

Verse 2: Riff A X2
Interlude: Riff B X2

Solo:
Riff C X4

Verse 3: Riff A X2
End: Riff A Fade


Legend:
. - Palm Mute
s - slide

Lyrics:

I
Kali hai raat
Ek aur durghatna
Jalti hai aag
Kshadayantric hatya
Chadti bali
Bahta hai khoon
Shaitani rog
Aatankwaad

Vaigyanic siddhi
Samajic ant
Agni chakshu
Kaya nirakt
Na koi dekha
Na koi suna
Danav ka raj
Atyachaar

II
Kali jaban
Khooni kalam
Shatru ki aankh
Sena ka mass
Teeno lokon
Mein uska dar
Aarambh hai yudhh
Ghor vichaar

Kala hai din
Udta hai dhooaa
Ranbhoomi par
Jalti hai chita
Ladte hai sare
Manav aur danav
Pruthvi ka ant
Antim sanskaar

Repeat I

Atyachaar
Atyachaar
Atyachaar...

(2005)

www.soundclick.com/nirvikalpa