Song name
# A B C D E F G H I J K L M N O P Q R S T U V W X Y Z

Nitin Sawhney - Homelands tab

			     

                      Homelands - Nitin Sawhney


update:> Solo < on 24. June 08


Tabbed by: Solced
Email: Solced@gmx.net


Tuning: Standart tuning  
       
        E A D G B E



>Homelands - Nitin Sawhney<





  
        
         Dm          Gm            Dm        Dm
 
e|-------6-------------0-------------1--------0-1----------------------------|
B|---------------------------------3---3-------------------------------------|
G|-----7-------------------------2----------2--------------------------------|
D|---5---------------5---5-----0-----------0---------------------------------|
A|------------------5--------------------------------------------------------|
E|-----------------3---------------------------------------------------------|

        Dm           Gm            Dm         

e|-------6-------------0-----------0-1---------------------------------------|
B|--------------------------------3---3--------------------------------------|
G|-----7-------------------------2-------------------------------------------|
D|---5---------------5---5------0--------------------------------------------|
A|------------------5--------------------------------------------------------|
E|-----------------3---------------------------------------------------------|

  
   
  

                                           
 
e|-----0-1-----------0------------0----------5----------0---------0---------|
B|----3-----------------------------3---------5--------3---------3----------|
G|---2-------------0---0---------2----2--------7------2---or----0-----------|
D|--0------------0------------------------7----------0---------3------------|
A|-----------0-1------------0-3----------5----------0---------0-------------|
E|--------------------------------------------------------------------------|



 
 

 Chords for the Rythm - part
 Listen to the Song for the right timing



       Dm         A#7         A#7        A7

e|------0h1--------0-----------0----------0----------------------------------|
B|-----3-----------3-----------3----------2----------------------------------|
G|----2------------0-----------0----------0----------------------------------|
D|---0-------------3-----------3----------2----------------------------------|
A|-----------------x-----------1----------x----------------------------------|
E|-----------------x-----------x----------x----------------------------------|


 

   

e|----------------------------------------------10-12-12h13----------|
B|--------------10--------------10h11-11p10---10---------------------|
G|-------9-10-12--------9-10-12--------------------------------------|
D|----12-------------12----------------------------------------------|
A|-------------------------------------------------------------------|
E|-------------------------------------------------------------------|


e|-13/15--13-12-10-10h12---------------------------------------------|
B|-----------------------0/--10-10-10-10\8-8-8-8\6-6-6-6\5-5-5-5/(8)-|
G|-------------------------------------------------------------------|
D|-------------------------------------------------------------------|
A|-------------------------------------------------------------------|
E|-------------------------------------------------------------------|






| /  slide up
| \  slide down
| h  hammer-on
| p  pull-off
| ~  vibrato
| +  harmonic
| x  Mute note



                Official Website:   http://www.nitinsawhney.com



                  updated the chords and the end of the solo
Tap to rate this tab
 
# A B C D E F G H I J K L M N O P Q R S T U V W X Y Z