Song name
# A B C D E F G H I J K L M N O P Q R S T U V W X Y Z

Nitin Sawhney - Waiting O Mistress Mine tab

Help us improve GuitareTab! Take a short survey!

              
                 Waiting (O Mistress Mine) - Nitin Sawhney




Tabbed by: Solced

Email: Solced@gmx.net

Tuning: E A D G B e

      

 Chord: Dm
       

e|-------1---0--1-0----1---0--1-0----0---1--0-1--------0------0--------------|
B|-------3---3--3-3----3---3--3-3----3---3--3-3--------3-3----3--------------|
G|------(2)-----------(2)-----------(2)-------------(2)--2--2----------------|
D|---0-----------------------------------------------------------------------|
A|------------------3-------------2--------------1---------3-----------------|
E|---------------------------------------------------------------------------|



e|-------5---5--5-5----1---0--1-0----0---1--0-1--------0------0--------------|
B|-------6---6--5-6----3---3--3-3----3---3--3-3--------3-3----3--------------|
G|--------------------(2)-----------(2)-------------(2)--2--2----------------|
D|----7----------------------------------------------------------------------|
A|--5----------------3------------2--------------1---------3-----------------|
E|---------------------------------------------------------------------------|



| /  slide up
| \  slide down
| h  hammer-on
| p  pull-off
| ~  vibrato
| +  harmonic
| x  Mute note
|( ) Ghost note
Related for Waiting O Mistress Mine tab