Song name
# A B C D E F G H I J K L M N O P Q R S T U V W X Y Z

Nitin Sawhney - Prophesy Acoustic tab

Help us improve GuitareTab! Take a short survey!
                    
                        Prophesy (Acoustic) - Nitin Sawhney 



Tabbed by: Solced
Email: Solced@gmx.net


Tuning: D A D A D D


E down -> D
A         A
D         D
G up   -> A
B up   -> D
e down -> D


                            (updated!) 

listen to the song to figure out the right timing and rythm!


     

D|---0----0-0---0-0------0----0-0---0-0------0----0-0---0-0------------------|
D|---0----0-0---0-0------0----0-0---0-0------0----0-0---0-0------------------|
A|--+12---2p0---0-0-----+12---2p0---0-0-----+12---2p0---0-0------------------|
D|--+12---0-0---2p0-----+12---0-0---2p0-----+12---0-0---2p0------------------|
A|--+12---2p0---0-0-----+12---2p0---0-0-----+12---2p0---0-0------------------|
D|---0----0-0---2p0------0----0-0---2p0------0----0-0---2p0------------------|


D|--0-0-0-0----0-0-0-0---0-0--0-0-0-0----0----0-0-0-0--0-0-0-0--0-0---0------|
D|--7-7p0h7----6-6p0h6-/-9-9--7-7p0h7----0----3-3p0h3--2-2p0h2--0-0---0------|
A|--0-0-0-0----0-0-0-0---0-0--0-0-0-0---+12---0-0-0-0--0-0-0-0--4-4-/-5------|
D|--7-7p0h7----6-6p0h6-/-9-9--7-7p0h7---+12---3-3p0h3--2-2p0h2--0-0---0------|
A|--0-0-0-0----0-0-0-0---0-0--0-0-0-0---+12---0-0-0-0--0-0-0-0--4-4-/-5------|
D|--0-0-0-0----0-0-0-0---0-0--0-0-0-0----0----0-0-0-0--0-0-0-0--0-0---0------|



D|---0----0-0---0-0------0----0-0---0-0------0----0-0---0-0------------------|
D|---0----0-0---0-0------0----0-0---0-0------0----0-0---0-0------------------|
A|--+12---2p0---0-0-----+12---2p0---0-0-----+12---2p0---0-0------------------|
D|--+12---0-0---2p0-----+12---0-0---2p0-----+12---0-0---2p0------------------|
A|--+12---2p0---0-0-----+12---2p0---0-0-----+12---2p0---0-0------------------|
D|---0----0-0---2p0------0----0-0---2p0------0----0-0---2p0------------------|


D|--0-0-0-0--0-0-0-0--0-0-0-0--0-0-0-0--0-0-0-0---0-0-0--0-0-0-0---0-0-0-----|
D|--7-7p0h7--6-6p0h6--3-3p0h3--2-2p0h2--0-0-0-0---0-0-0--0-0-0-0---0-0-0-----|
A|--0-0-0-0--0-0-0-0--0-0-0-0--0-0-0-0--4-4p0h4-/-5-5-5--4-4p0h4-/-5-5-5-----|
D|--7-7p0h7--6-6p0h6--3-3p0h3--2-2p0h2--0-0-0-0---0-0-0--0-0-0-0---0-0-0-----|
A|--0-0-0-0--0-0-0-0--0-0-0-0--0-0-0-0--4-4p0h4-/-5-5-5--4-4p0h4-/-5-5-5-----|
D|--0-0-0-0--0-0-0-0--0-0-0-0--0-0-0-0--0-0-0-0---0-0-0--0-0-0-0---0-0-0-----|


D|---0----0-0---0-0------0----0-0---0-0------0----0-0---0-0------------------|
D|---0----0-0---0-0------0----0-0---0-0------0----0-0---0-0------------------|
A|--+12---2p0---0-0-----+12---2p0---0-0-----+12---2p0---0-0------------------|
D|--+12---0-0---2p0-----+12---0-0---2p0-----+12---0-0---2p0------------------|
A|--+12---2p0---0-0-----+12---2p0---0-0-----+12---2p0---0-0------------------|
D|---0----0-0---2p0------0----0-0---2p0------0----0-0---2p0------------------|


D|--0-0-0-0--0-0-0-0--0-0-0-0--0-0-0-0--0-0-0-0--0-0-0-0--0-0-0-0------------|
D|--7-7p0h7--6-6p0h6--7-7p0h7--3-3p0h3--3-3p0h3--2-2-0-0--0-0-0-0------------|
A|--0-0-0-0--0-0-0-0--0-0-0-0--0-0-0-0--0-0-0-0--0-0-0-0--4-4p0h4------------|
D|--7-7p0h7--6-6p0h6--7-7p0h7--3-3p0h3--3-3p0h3--2-2-0-0--0-0-0-0------------|
A|--0-0-0-0--0-0-0-0--0-0-0-0--0-0-0-0--0-0-0-0--0-0-0-0--4-4p0h4------------|
D|--0-0-0-0--0-0-0-0--0-0-0-0--0-0-0-0--0-0-0-0--0-0-0-0--0-0-0-0------------|




| /  slide up
| \  slide down
| h  hammer-on
| p  pull-off
| ~  vibrato
| +  harmonic
| x  Mute note


Related for Prophesy Acoustic tab