Song name
# A B C D E F G H I J K L M N O P Q R S T U V W X Y Z

Nitin Sawhney - Tides tab

'Tides' - Nitin Sawhney 

Tuning: Eb Ab Db Gb Bb Eb (i.e. all strings 1 semitone lower)
        (Standard tuning is fine unless you want to play along to the track)

Submitted by MrJA
Tabbed by DanoushAhmadi


INTRO:

e|----------2-----------2-9--7--5-|-----------5--2-----------------|
B|--------0---3-----2-3-----------|------0-3-------2---------0-----|
G|------0-------------------------|----2-----------2-----------2---|
D|----4-----------4---------------|--0-------------0-----2---------|
A|--2-----------2-----------------|--------------------0-----------|
E|0-------------------------------|3-------------------------------|

e|----------2-----------2-9-----7-|-----------5--2-----------------|
B|--------0---3-----2-3------7----|------0-3-------2---------------|
G|------0-------------------------|----2-----------2---------------|
D|----4-----------4---------------|--0-------------0---------------|
A|--2-----------2-----------------|--------------------------------|
E|0-------------------------------|3-------------------------------|


SECTION 1:

e|----------------9---------------|5---------------2---------------|
B|0---------------7---------------|3---------------2---------------|
G|0---------------7---------------|4---------------2---------------|
D|2---------------7---------------|5---------------0---------------|
A|2---------------9---------------|5-------------------------------|
E|0---------------7---------------|3-------------------------------|

e|2---------------9---------------|5---------------2---------------|
B|3---------------7---------------|3---------------2---------------|
G|0---------------7---------------|4---------------2---------------|
D|2---------------7---------------|5---------------0---------------|
A|2---------------9---------------|5-------------------------------|
E|0---------------7---------------|3-------------------------------|

e|2---------------9---------------|5---------------2---------------|
B|3-----3-------7-7-----10--------|3-----7---------2---------------|
G|0---------------7-------------7-|4---------------2---------------|
D|2---------------7---------9-----|5---------------0---------------|
A|2---------------9---------------|5-------------------------------|
E|0---------------7---------------|3-------------------------------|

e|2---------------9---------------|5-------------------------------|
B|3-----3------7--7-----10--------|3-----7---------2---------------|
G|0---------7-----7---------------|4---------------2---------------|
D|2---------------7---------------|5---------------0---------------|
A|2---------------9---------------|5-------------------------------|
E|0---------------7---------------|3-------------------------------|


SECTION 2:

e|6---------7-----3-----------3---|6---------7-6---3---------------|
B|9------------9--6---------4---4-|9---------------6---------------|
G|8---------------5-------3-------|8---------------5---------------|
D|8-----8---------5-----5---------|8-----8---------3-----5---------|
A|6---6-----------3---------------|6---6-----------3---3-----------|
E|--------------------------------|--------------------------------|

e|6---------7-6---3-----------3---|6---------7--6--3---------------|
B|9---------------6---------4---4-|9---------------6---------------|
G|8---------------5-------3-------|8---------------5---------------|
D|8-----8---------5-----5---------|8-----8---------5-----5---------|
A|6---6-----------3---------------|6---6-----------3---3-----------|
E|--------------------------------|--------------------------------|


SECTION 3:

e|2---------3--5--6---------7--9--|10--------9--7--6---------------|
B|0---------------7---------------|7---------------7---------------|
G|0---------------6---------------|7-----7---------6---------------|
D|0-----4---------8-----8---------|7---------------8-----8---------|
A|2---2-----------6---6-----------|9---9-----------6---6-----------|
E|3-------------------------------|7-------------------------------|

e|2---------3--5--6---------7--9--|10--------9--7--6---------------|
B|0---------------7---------------|7---------------7---------------|
G|0---------------6---------------|7-----7---------6---------------|
D|0-----4---------8-----8---------|7---------------8-----8---------|
A|2---2-----------6---6-----------|9---9-----------6---6-----------|
E|3-------------------------------|7-------------------------------|
Tap to rate this tab
 
# A B C D E F G H I J K L M N O P Q R S T U V W X Y Z