Song name
# A B C D E F G H I J K L M N O P Q R S T U V W X Y Z

Nitro - Freight Train tab

-------------------------------------------------------------------------------
			     Freight Train- Nitro
-------------------------------------------------------------------------------
Tabbed by:ironmanben
Email:ironmanben @ yahoo.com

Tuning:
riff 1
e|----------------------------------------------------------------------------|
B|----------------------------------------------------------------------------|
G|---3p00-5p00-3p00-5h00-3x3h5------------------------------------------------|
D|---3p00-5p00-3p00-5h00-3x3h5------------------------------------------------|
A|----------------------------------------------------------------------------|
E|----------------------------------------------------------------------------|
riff 2
e|---------------------------------------------------------------------------|
B|---------------------------------------------------------------------------|
G|--3------3333--------------------------------------------------------------|
D|--3------3333--------------------------------------------------------------|
A|----333--------3333--2--2--------------------------------------------------|
E|----111--------1111--1--1--------------------------------------------------|

riff 3
e|--------------------------------------------------------------------------|
B|--------------------------------------------------------------------------|
G|-----3-3p0----------3-3p0-------5-55-55---3-3p0---------------------------|
D|-----3-3p0----------3-3p0-------5-55-55---3-3p0---------------------------|
A|------------3-1-----------3-1-------------------3-1-----------------------|
E|--------------------------------------------------------------------------|
chorus
e|---------------------------------------------------------------------------|
B|---------------------------------------------------------------------------|
G|---------------------------------------------------------------------------|
D 6-6666666666666--6-5-55555555555555--5-33333333333333--3-5-55555555555555--|
A|6-6666666666666--6-5-55555555555555--5-33333333333333--3-5-55555555555555--|
----PALM MUTE--------PALM MUTE--------PALM MUTE---------PALM MUTE------------|
E|---------------------------------------------------------------------------|

chorus 2
e|---------------------------------------------------------------------------|
B|---------------------------------------------------------------------------|
G|---7-6-5-3-----3-2---------------------------------------------------------|
D|---5-4-3-1-3-5-1-0---------------------------------------------------------|
A|-----------1-3-------------------------------------------------------------|
E|---------------------------------------------------------------------------|

riff 4
e|--------------------------------------------------------------------------|
B|--------------------------------------------------------------------------|
G|-----3p00-5p00-3p00-5p00-3-3h5----3p00-5p00-------------------------------|
D|-----3p00-5p00-3p00-5p00-3-3h5----3p00-5p00-5-3---------------------------|
A|--------------------------------------------3-1---------------------------|
E|--------------------------------------------------------------------------|

e|--------------------------------------------------------------------------|
B|--------------------------------------------------------------------------|
G|----SOLO~~~~~~~~~~~~~~~~~~~~~~~~~~~~~~~~~~~~~~~~~~~~~~~~~~~~~~~~~~~~~-----|
D|--------------------------------------------------------------------------|
A|--------------------------------------------------------------------------|
E|--------------------------------------------------------------------------|
Sorry, I don't know the solo.  Improvise, for now, or something.

Order:
riff 1: x8
riff 2: x1
riff 3: x4
chorus: x1
chorus 2: x1
riff 4: x2
chorus: x1
SOLO
riff 2: x1
riff 3: x4
chorus: x1
chorus 2: x1
riff 4: x4
SOLO
vocal "I'm on a freight train": x4
riff 4: x4
chorus: x1
chorus 2 (with last 4 chords played 3 times): x1
riff 4: x4
end:
e----------------------------------|
B----------------------------------|
G----------------------------------|
D----5-5-5-3--5-5-5-3--5-5-5-3-----|
A----3-3-3-1--3-3-3-1--3-3-3-1--5--|
E-------------------------------3--|

| /  slide up
| \  slide down
| h  hammer-on
| p  pull-off
| ~  vibrato
| +  harmonic
| x  Mute note
===============================================================================
Tap to rate this tab
 
# A B C D E F G H I J K L M N O P Q R S T U V W X Y Z