Song name
# A B C D E F G H I J K L M N O P Q R S T U V W X Y Z

Nitrus - Resah tab

-------------------------------------------------------------------------------
			     RESAH - Nitrus
-------------------------------------------------------------------------------
Tabbed by: Zahirah Ardy
Email: broississy@yahoo.com
Official site of band: nitrusband.blogspot.com

Tuning: Standard


The riffs are all quite similar to each other, with minor modifications here and 
there. Over all, it's an easy song, so here goes.


Intro :

Guitar 1 - Repeat 1x
e|-----------0---------------0-----|-----------0-------------0----|
B|---1---------1-----1---------1---|---1---------1-----1-------1--|
G|-----0---------0-----0---------0-|-----0---------0-----0-------0|
D|-------2---------------2---------|-------2---------------2------|
A|-3---------------3---------------|-0---------------0------------|
E|---------------------------------|------------------------------|


e|-----------0---------------0----|------------------------3------|
B|---1---------1-----1---------1--|--1---------1-----1-------1----|
G|-----0---------0-----0---------0|----0-----0---0-----0-------0--|
D|-------2---------------2--------|3-----2h3-------------3-------0|
A|--------------------------------|-------------------------------|
E|-3---------------3--------------|-------------------------------|


Guitar 2 - N/A

--------------------------------------------------------

Verse 1:

Guitar 1 CLEAN - Repeat 3x

e|-----------0---------------0------|-----------0-------------0----|
B|---1---------1-----1---------1----|---1---------1-----1-------1--|
G|-----0---------0-----0---------0--|-----0---------0-----0-------0|
D|-------2---------------2----------|-------2---------------2------|
A|-3---------------3----------------|-0---------------0------------|
E|----------------------------------|------------------------------|


e|-----------0---------------0----|-------------------------3------|
B|---1---------1-----1---------1--|---1---------1-----1-------1----|
G|-----0---------0-----0---------0|-----0-----0---0-----0-------0--|
D|-------2---------------2--------|-3-----2h3-------------3-------0|
A|--------------------------------|--------------------------------|
E|-3---------------3--------------|--------------------------------|


Guitar 2 - N/A

Berapa lama harus aku tunggu
Kata setuju kamu
Kau biar aku menanti pilu
Kau diam bisu buat aku keliru
Mana tuju hatimu
Usah biarku resah menunggu

Oooooh...

--------------------------------------------------------

Verse 2:

Guitar 1 CLEAN -

e|-----------0---------------0------|-----------0-------------0----|
B|---1---------1-----1---------1----|---1---------1-----1-------1--|
G|-----0---------0-----0---------0--|-----0---------0-----0-------0|
D|-------2---------------2----------|-------2---------------2------|
A|-3---------------3----------------|-0---------------0------------|
E|----------------------------------|------------------------------|


e|-----------0---------------0----|-------------------------3------|
B|---1---------1-----1---------1--|--1---------1------1-------1----|
G|-----0---------0-----0---------0|----0-----0---0------0-------0--|
D|-------2---------------2--------|3-----2h3-------3------3-------0|
A|--------------------------------|--------------------------------|
E|-3---------------3--------------|--------------------------------|


e|-----------0---------------0------|-----------0-------------0----|
B|---1---------1-----1---------1----|---1---------1-----1-------1--|
G|-----0---------0-----0---------0--|-----0---------0-----0-------0|
D|-------2---------------2----------|-------2---------------2------|
A|-3---------------3----------------|-0---------------0------------|
E|----------------------------------|------------------------------|


e|-----------0---------------0------|------------------|
B|---1---------1-----1---------1----|---1---------1----|
G|-----0---------0-----0---------0--|-----0-----0---0~-|
D|-------2---------------2----------|-3-----2h3--------|
A|----------------------------------|------------------|
E|-3---------------3----------------|------------------|



Guitar 2 CLEAN -

e|-8---8---8---8---8---8---8---8--|7---7---7---7---7---7---7---7---|
B|---8---8---8---8---8---8---8---8|--8---8---8---8---8---8---8---8-|
G|--------------------------------|--------------------------------|
D|--------------------------------|--------------------------------|
A|--------------------------------|--------------------------------|
E|--------------------------------|--------------------------------|


e|-5---5---5---5---5---5---5---5--|7---7---7---7---7---7---7---7--|
B|---8---8---8---8---8---8---8---8|--8---8---8---8---8---8---8---8|
G|--------------------------------|-------------------------------|
D|--------------------------------|-------------------------------|
A|--------------------------------|-------------------------------|
E|--------------------------------|-------------------------------|

e|-8---8---8---8---8---8---8---8--|7---7---7---7---7---7---7---7--|
B|---8---8---8---8---8---8---8---8|--8---8---8---8---8---8---8---8|
G|--------------------------------|-------------------------------|
D|--------------------------------|-------------------------------|
A|--------------------------------|-------------------------------|
E|--------------------------------|-------------------------------|


e|-5---5---5---5---5---5---5---5---|-7---7---7---7----|
B|---8---8---8---8---8---8---8---8-|---8---8---8---8~-|
G|---------------------------------|------------------|
D|---------------------------------|------------------|
A|---------------------------------|------------------|
E|---------------------------------|------------------|

Raut wajahmu bisa ditelahku
Kau masih belum tentu
Apa ada rasa dalam hatimu
Datang padaku cerita padaku
Ungkapkan rasa itu
Apa saja buat hilang ragumu

--------------------------------------------------------

Chorus:

Guitar 1 CLEAN -

e|-----------3---------------3----|-----------3-------------3----|
B|---1---------1-----1---------1--|---1---------1-----1-------1--|
G|-----0---------0-----0---------0|-----0---------0-----0-------0|
D|-------2---------------2--------|-------2---------------2------|
A|-3---------------3--------------|-0---------------0------------|
E|--------------------------------|------------------------------|


e|-----------3---------------3----|---------3--------------3----|
B|---1---------1-----1---------1--|---1-------1------1-------1--|
G|-----0---------0-----0---------0|-----0-------0------0-------0|
D|-3-----3---------3-----3--------|-------2--------------2------|
A|--------------------------------|-----------------------------|
E|--------------------------------|-3--------------3------------|


e|-----------3---------------3----|-----------3-------------3----|
B|---1---------1-----1---------1--|---1---------1-----1-------1--|
G|-----0---------0-----0---------0|-----0---------0-----0-------0|
D|-------2---------------2--------|-------2---------------2------|
A|-3---------------3--------------|-0---------------0------------|
E|--------------------------------|------------------------------|


e|-----------3---------------3------|-3~-|
B|---1---------1-----1---------1----|-0~-|
G|-----0---------0-----0---------0--|-0~-|
D|-3-----3---------3-----3----------|-0~-|
A|----------------------------------|-2~-|
E|----------------------------------|-3~-|


Guitar 2 CLEAN -

Strum these chords CLEAN -

C Am F G
C Am F G~

Sesungguh tak kau tahu
Diriku ada kamu
Akan ku relakan semua ada ku untukmu
Mungkin bila kau tahu
Mungkin bisa kau temui jiwaku
Usah biar terusan begitu

--------------------------------------------------------

Solo part (Rhythm mostly controlled by bass):

Guitar 1 DISTORTED -

Repeat 2x

e|-12-12-12-12-12-12-12-12/10-10-10-10/15-15-15-15/8---|
B|-----------------------------------------------------|
G|-----------------------------------------------------|
D|-----------------------------------------------------|
A|-----------------------------------------------------|
E|-----------------------------------------------------|


e|-8-8-8-8-8-8-8/7-7-7-7/12-12-12-12/5-5-5-5-5-5-5-5/3-|
B|-----------------------------------------------------|
G|-----------------------------------------------------|
D|-----------------------------------------------------|
A|-----------------------------------------------------|
E|-----------------------------------------------------|


e|-3-3-3/8-8-8-8/1(x16)--------------------------------|
B|-----------------------------------------------------|
G|-----------------------------------------------------|
D|-----------------------------------------------------|
A|-----------------------------------------------------|


Guitar 2 CLEAN -

Repeat 2x

e|-----------3---------------3------|-----------3-------------3----|
B|---1---------1-----1---------1----|---1---------1-----1-------1--|
G|-----0---------0-----0---------0--|-----0---------0-----0-------0|
D|-------2---------------2----------|-------2---------------2------|
A|-3---------------3----------------|-0---------------0------------|
E|----------------------------------|------------------------------|


e|-----------3---------------3------|---------3--------------3-----|
B|---1---------1-----1---------1----|---1-------1------1-------1---|
G|-----0---------0-----0---------0--|-----0-------0------0-------0-|
D|-3-----3---------3-----3----------|-------2--------------2-------|
A|----------------------------------|------------------------------|
E|----------------------------------|-3--------------3-------------|

--------------------------------------------------------

Final chorus:

Guitar 1 DISTORTED -

e|-------------------------------------|
B|-------------------------------------|
G|-5-----------------------------------|
D|-5-( x8 )-7-( x8 )-3-( x8 )-5-( x8 )-|
A|-3--------7--------3--------5--------|
E|----------5--------1--------3--------|

e|-------------------------------------|
B|-------------------------------------|
G|----------------------------3--------|
D|-7-( x8 )-2-( x8 )-3-( x8 )-3-( x8 )-|
A|-7--------2--------3--------1--------|
E|-5--------0--------1-----------------|

end with chord C played in clean

Guitar 2 CLEAN -

e|-12----12----12----12----12----12----12----12----|
B|----13----13----13----13----13----13----13----13-|
G|-------------------------------------------------|
D|-------------------------------------------------|
A|-------------------------------------------------|
E|-------------------------------------------------|


e|-10----10----10----10----10----10----10----10----|
B|----13----13----13----13----13----13----13----13-|
G|-------------------------------------------------|
D|-------------------------------------------------|
A|-------------------------------------------------|
E|-------------------------------------------------|

e|-12----12----12----12----12----12----12----12----|
B|----13----13----13----13----13----13----13----13-|
G|-------------------------------------------------|
D|-------------------------------------------------|
A|-------------------------------------------------|
E|-------------------------------------------------|

e|-7---7---7---7---8---8---10---10---|
B|---8---8---8---8---8---8----8----8-|
G|-----------------------------------|
D|-----------------------------------|
A|-----------------------------------|
E|-----------------------------------|

Sesungguh tak kau tahu
Diriku ada kamu
Akan ku relakan semua ada ku untukmu
Mungkin bila kau tahu
Mungkin bisa kau temui jiwaku
Usah biar terusan begitu

--------------------------------------------------------

Outro:

Guitar 1 - N/A

Guitar 2 CLEAN-

e|-----------3---------------3-----|----------3-------------3------|
B|---1---------1-----1---------1---|--1---------1-----1-------1----|
G|-----0---------0-----0---------0-|----0---------0-----0-------0--|
D|-------2---------------2---------|------2---------------2--------|
A|-3---------------3---------------|0---------------0--------------|
E|---------------------------------|-------------------------------|


e|-----------3---------------3----|-------------------------3------|
B|---1---------1-----1---------1--|--1---------1------1-------1----|
G|-----0---------0-----0---------0|----0-----0---0------0-------0--|
D|-3-----3---------3-----3--------|3-----2h3-------3------3-------0|
A|--------------------------------|--------------------------------|
E|--------------------------------|--------------------------------|
Tap to rate this tab
# A B C D E F G H I J K L M N O P Q R S T U V W X Y Z