Song name
# A B C D E F G H I J K L M N O P Q R S T U V W X Y Z

Nitty Gritty Dirt Band - Fishin In The Dark tab

My first tab
Drop D tuning
Intro
Guitar 1
E:-----------------|
B:-----------------|
G:-----------------|
D:0-0-0-0-0-0-0000-|4x 
A:0-2-0-2-0-2-0020-|
D:0-0-0-0-0-0-0000-|
Palm Mute

Guitar 2
E:-----------------|
B:-----------------|
G:-----------------|
D:------0----------|
A:---0h2-----------|
D:-0---------3h2-0-|



E:-----------------|
B:-----------------|
G:-----------------|
D:0-0-0-0-0-0-0000-|2x 
A:0-2-0-2-0-2-0020-|
D:0-0-0-0-0-0-0000-|
Palm Mute
Lazy yellow moon comin up through the nite, shinin through the trees


E:-----------------|
B:-----------------|
G:-----------------|
D:5-5-5-5-5-5-5555-|2x 
A:5-7-5-7-5-7-5575-|
D:5-5-5-5-5-5-5555-|
Palm Mute
Crikets are singing and the lightnin bugs are floatin on the breeze



E:-----------------|
B:-----------------|
G:-----------------|
D:0-0-0-0-0-0-0000-|4x 
A:0-2-0-2-0-2-0020-|
D:0-0-0-0-0-0-0000-|
Palm Mute
{Baby get ready--Across the Field where the Crik turns back by the old stump road}

E:-----------------|
B:-----------------|
G:-----------------|
D:5-5-5-5-5-5-5555-|2x 
A:5-7-5-7-5-7-5575-|
D:5-5-5-5-5-5-5555-|
{I'm gonna take you to a special place that nobody knows-Baby get ready}
E:-----------------|
B:-----------------|
G:-----------------|
D:0-0-0-0-0-0-0000-|1x 
A:0-2-0-2-0-2-0020-|
D:0-0-0-0-0-0-0000-|
Palm Mute

E:------------|
B:0-0-0-0-0-0-|
G:0-0-0-0-0-0-|
D:0-0-0-0-0-0-|
A:0-0-0-0-0-0-|
D:0-0-0-0-0-0-|
{oooooo}
(get lowder each time)
Chorus
D
You and me go fishin in the dark lyin on our backs and countin the stars
G
where the cool grass grows..
D
down by the river in the full moonlight we'll be fallin in love in the middle of the night
G
just moving slow...
C                      Am
spend the whold night through
C                D        G
feels so good to be with you..


VERSE 2
I don't care if we sit forever and the fish don't bite
We'll jump in the river and cool ourselves from the heat of the night
Baby get ready
Spring's almost over and summer's comin' the days are gettin' long
Been waitin' all season for the time to be right just to take you along
Baby get ready, ooo ooo

Repeat Chorus again


The rest of the song is in basically the same order as the beggining, so just repeat it.







Tap to rate this tab
# A B C D E F G H I J K L M N O P Q R S T U V W X Y Z