Song name
# A B C D E F G H I J K L M N O P Q R S T U V W X Y Z

Nizlopi - Worry tab

Worry  -  Nizlopi
Tabbed by: Bastiaan Nijbroek


Intro:

e|--------------12--9----------------------------------|
B|---------10----------10-------10-x--10--10--10--10---|
G|------11-------------------11--------9---9---9---9---|
D|---12--------------------0----------11-------0-------|
A|-----------------------------------------------------|
E|-----------------------------------------------------|
    |--Rake--|

e|------------------------------------------|
B|-------10--x--10--10--10---10-------------|
G|----11---------9---9---9----9-------------|
D|--0-----------11-------0------------------|
A|------------------------------------------|
E|------------------------------------------|


e|--------------12--9------------------------------|
B|---------10----------10-----7----7-7-----10--10--|
G|------11--------------------6----6-6------9---9--|
D|---12-----------------------7----7---------------|
A|-------------------------5----x--5---5/9--9---9--|
E|-------------------------------------------------|
    |--Rake--|

e|------------------------------------------|
B|----10--x-----10--10--10---10-------------|
G|----11--x------9---9---9----9-------------|
D|--0-----x-----11-------0------------------|
A|------------------------------------------|
E|------------------------------------------|


Basically Nizlopi varies with the intro during the song. The verses always start with: 

e|-------------------------------------------|
B|-------10-x--10--10--10--10----------------|
G|----11--------9---9---9---9----------------|
D|--0----------11-------0--------------------|
A|-------------------------------------------|
E|-------------------------------------------|

The chorus starts with:

e|-------------------------------------------|
B|-----7----7-7-----10--10-------------------|
G|-----6----6-6------9---9-------------------|
D|-----7----7--------------------------------|
A|--5----x--5---5/9--9---9-------------------|
E|-------------------------------------------|

Only the bridge differs, im not sure but its something like:


e|---------9------------9------|
B|--------9-----------10-------|
G|----- -9-----------9---------|
D|-----11----------11----------|
A|-----------------------------|
E|-----------------------------|

    So tired,   so stay (etc.)

Tap to rate this tab
# A B C D E F G H I J K L M N O P Q R S T U V W X Y Z