Song name
# A B C D E F G H I J K L M N O P Q R S T U V W X Y Z

Nizlopi - Clear tab

This is a pretty easy song, I've only got a crappy youtube rip of it, but it's 
beautiful nonetheless.

Remember he uses a lot of muted chords. The rhythm isn't very hard so I'm not going to 
it out, just give it a quick listen.

The Chords for the Verse are just this:

G Bm7

G
Well I'm naked with you,
       Bm7
in this third story oxford,
G
wow I'm shaking with you,
     Bm7
huge feelings, huge feelings,
G
while you feel them too,
         Bm7
but in a different way than i do,
G
yeah I'm im all curled up by you,
          Bm7
little in love too, little in love!


Then for the chorus I play these chords:

e|-3-|---|
B|-5-|-5-|
G|-5-|-5-|
D|-5-|-5-|
A|-3-|-x-|
E|---|-5-|
   C   Am7

C
When we didnt get it clear,
Am7
and we didnt get it clear,
(hmmmmmnnnn)

I'm not sure about that, but it sounds okay to me.

This is the picking bit

e|--------------|--------------|-------------|-----9-------|
B|---8-10-8---8-|---8-10-8---8-|-----8-------|---8---8---9-|
G|-9--------9---|-7--------7---|---7---7---7-|-9-------9---|
D|--------------|--------------|-9-------9---|-------------|
A|--------------|--------------|-------------|-------------|
E|--------------|--------------|-------------|-------------|

The part where he says "I'm amazed by you darling" is these chords:

e|-12-|-10-|---|-9-|
B|-8--|-8--|-8-|-8-|
G|-9--|-7--|-7-|-9-|
D|----|----|-9-|---|
A|----|----|---|---|
E|----|----|---|---|

Thats pretty much all of it, enjoy!
Tap to rate this tab
 
# A B C D E F G H I J K L M N O P Q R S T U V W X Y Z