Song name
# A B C D E F G H I J K L M N O P Q R S T U V W X Y Z

Nizlopi - Girls tab

This is not my tab, just doing a 
modification from 'quincy142@hotmail.com's 
with some personal preferences that may or 
may not be correct. No offense to the 
original author!

A fantastic song to play for a 
novice/intermediate fingerpicker with an
acoustic guitar.

Standard Tuning (EADGBe)

Intro
e|----0----------0---------0---------0------|
B|--0-0--0-0---0-0--0-0--0-0--0-0--0-0--0-0-|
G|------------------------------------------| x2
D|------2-2--------2-2-------4-4-------4-4--|
A|-0----------0---------2---------2---------|
E|------------------------------------------|

They go deep, with their love and fear...
e|----0----------0---------0---------0------|
B|--0-0--0-0---0-0--0-0--0-0--0-0--0-0--0-0-|
G|------------------------------------------| x2
D|------2-2--------2-2-------4-4-------4-4--|
A|-0----------0---------2---------2---------|
E|------------------------------------------|    

If you rub yourself for long enough...
e|---0---0---0---0---0---0---0---0----------|
B|---0---0---0---0---0---0---0---0----------|
G|------------------------------------------|
D|--2---2---2---2---6---6---6---6-----------|
A|-0---0---0---0---4---4---4---4------------|
E|------------------------------------------| 

Straight to your heart...
e|---0---0---0---0---0---0---0---0-----0----|
B|---0---0---0---0---0---0---0---0-----0----|
G|---2---2---2---2---6---6---6---6-----4----|
D|--2---2---2---2---6---6---6---6------4----|
A|-0---0---0---0---4---4---4---4-------2----|
E|------------------------------------------|

Gotta love and forgive, or you can't breathe...
e|-0-------0------------0----2-0---x2--0----|
B|--0---0---0---0-----0--0---2-0-------0----|
G|---2-2-2---2-2-2---2-2--2--4-2-------2----|
D|----2---2---2---2-2--------4-2-------2----|
A|---------------------------2-0-------1----|
E|-------------------------------------0----|
Tap to rate this tab
 
# A B C D E F G H I J K L M N O P Q R S T U V W X Y Z